Jack Johnson - Red Wine Mistakes Mythology tab

e|--------------------------------------------------------------------------|
B|-----------------13b---13---10-----------------------------------------13b|
G|----12b---14b--------------------12b------12-----10--------12b----14b----|
D|--------------------------------------------------------------------------|
A|--------------------------------------------------------------------------|
E|--------------------------------------------------------------------------|

e|--------------------------------------------------------------------------|
B|--------------------------------------------------------------------------|
G|------------12--10-------------12--10------10--11-----------------12---10-|
D|--10h12p10----------10h12p10----------------------12----10h12p10----------|
A|--------------------------------------------------------------------------|
E|--------------------------------------------------------------------------|

e|--------------------------------------------------------------------------|
B|--------------------------------------------------------------------------|
G|-------------12--10-----12b--12--10---------------------------------------|
D|--10h12p10--------------------------10------------------------------------|
A|--------------------------------------------------------------------------|
E|--------------------------------------------------------------------------|
************************************

| /   slide up
| \   slide down
| h   hammer-on
| p   pull-off
| ~   vibrato
| +   harmonic
| x   Mute note
| b   Bend
| pb  Pre-bend
| br  Bend release
| pbr Pre-bend release
| brb Bend release bend

************************************
Tap to rate this tab
 
# A B C D E F G H I J K L M N O P Q R S T U V W X Y Z