Song name
# A B C D E F G H I J K L M N O P Q R S T U V W X Y Z

Jack Johnson - Only The Ocean tab

Artist: Jack Johnson
Song: Only The Ocean
Album: To The Sea (2010)
tabbed by: Roger Walters
e-mail: rogerwalters3@yahoo.com

I couldnt find any tabs that really worked for me so i made this all acoustic 
version ha not sure if 100% correct

NOTE: this is how i like to play it u can figure out the real vers urself.

. = Palm-Muted
~ = hold note
^ = vibrate
p = pull off
h = hammer on
/ = slide up
\ = slide down

Chords: F, Am, Cm, G, C, C#, C

|--5--|  |--5--|  |--3--|  |--3--|  |--8--|  |--9--|  |--8--| 
|--6--|  |--5--|  |--4--|  |--3--|  |--8--|  |--6--|  |--5--| 
|--5--|  |--5--|  |--5--|  |--3--|  |--9--|  |--6--|  |--5--| 
|--7--|  |--7--|  |--5--|  |--5--|  |--10-|  |--6--|  |--5--| 
|--8--|  |--7--|  |--3--|  |--5--|  |--10-|  |--8--|  |--7--| 
|--x--|  |--5--|  |--x--|  |--3--|  |--8--|  |--9--|  |--8--| 
   F        Am       Cm       G        C        C#       C*          

Intro/Chorus:

e|--------------5--------------5--------------3--------------3------|
B|--------------6--------------5--------------4--------------3------|
G|-----------5--5--------------5-----------5--5--------------3------|
D|--------7-----7-----------7--7--------5-----5-----------5--5------|
A|-----8--------8--------7-----7-----3--------3--------5-----5------|
E|--------------x-----5--------5--------------x-----3--------3------|

E|--------------8--------------8--------------5--------------5------|
B|--------------8--------------8--------------6--------------5------|
G|--------------8--------------8-----------5--5--------------5------|
D|-----------10-10----------10-10-------7-----7-----------7--7------|
A|--------10----10-------10----10----8--------8--------7-----7------|
E|-----8--------8-----8--------8--------------x-----5--------5------|


Verse:

E|-----5--------5-----5--------5-----3--------3-----3--------3------|
B|--------6--------------5--------------4--------------3------------|
G|-----------5--------------5--------------5--------------3---------|
D|------------------------------------------------------------------|
A|------------------------------------------------------------------|
E|------------------------------------------------------------------|

E|-----9--------9-----8--------8------|
B|--------6--------------5------------|
G|-----------6--------------5---------|
D|------------------------------------|  x2
A|------------------------------------|
E|------------------------------------|

Repeat Intro/Chorus:

Solo:

E|------------------------------------------------------------------|
B|------------------------------------------------------------------|
G|-----5--/10-----10/12--9-----9/10--8-----8/10--7-----7--/9--------|
D|------------------------------------------------------------------|
A|------------------------------------------------------------------|
E|------------------------------------------------------------------|

e|---------------------------------------|
B|---------------------------------------|
G|-----/12~----------12--9-----9--\5-----|
D|---------------------------------------|
A|---------------------------------------|
E|---------------------------------------|

Repeat Verse:

Repeat Intro/Chorus:

Repeat Solo:
Tap to rate this tab
 
# A B C D E F G H I J K L M N O P Q R S T U V W X Y Z