Jack Johnson - My Little Girl tab

Hey, this is just an improved version on Ryan's tab of the solo.
Flows alright.

Solo: (Played over verse chords)
e|---------------------------------------------------------------------|x2
B|-------------------------------------------------------10-10---------|
G|--------7---9-7-----------7---9-7-11---------7---7-9-----------------|
D|--7-9-7---7-----9---7-9-7---7----------7-9-7---7-----9---------------| 
A|---------------------------------------------------------------------|
E|---------------------------------------------------------------------|

Got to get the harmony going here to get that smooth sound
(Played over chorus chords)

e|------------------------------ |--------------------|x2----|
B|------------------------------ |--------------------|  ----|
G|-----14--11-14--11----9--7--9- |-11--14---9--7--9---|  ----|
D|-9---------------------------- |-------------------9|  s12-|
A|-9---12--9--12--9-----7--5--7- |-9---12---7--5--7---|  ----|
E|------------------------------ |-------------------7|  s10-|
Tap to rate this tab
 
# A B C D E F G H I J K L M N O P Q R S T U V W X Y Z