Jack Johnson - Red Wine Mistakes Mythology tab

Hey guys so this is my first tab so go easy, i just saw a video of him play live 
and im 99% sure this is how it goes. Please rate thanks.

basically the rhythm is this....

e|--------------------------------------------------------------------------|
B|--------------------------------------------------------------------------|
G|--------------------------------------------------------------------------|
D|---5-----------------------------5----------------------------------------|
A|---7------3-4-5-----8-9----------7------3-4-5-----8-9---------------------|
E|----------1-2-3-----6-7-----------------1-2-3-----6-7---------------------|


Then for the chorus....


e|--------------------------------------------------------------------------|
B|--------------------------------------------------------------------------|
G|--------------------------------------------------------------------------|
D|-5-5-5-5-5-5-5-5-----------------------5-5-5-5-5-5-5-5--------------------|
A|-7-7-7-7-7-7-7-7--5-5-5-5-5-5-5-5------3-3-3-3-3-3-3-3----5-5-5-5-5-5-5-5-|
E|------------------3-3-3-3-3-3-3-3-------------------------3-3-3-3-3-3-3-3-|

   Red Wine, Mistakes, Apologies.  And it's all just, red wine, headaches, mythology


Im not sure on the solo yet sorry. dont forget to rate thanks!
Tap to rate this tab
 
# A B C D E F G H I J K L M N O P Q R S T U V W X Y Z