Song name
# A B C D E F G H I J K L M N O P Q R S T U V W X Y Z

Jack Johnson - Cookie Jar tab

Cookie Jar by Jack Johnson. 
Transcribed by Morgan Thompson (Guitarwizz2006@gmail.com) 

Capo on the 2nd Fret, "D" means Down-stroke; "U" means Up-stroke; "h" means hammer on.
_______________________________________________________________________________

Intro:

    D  U     D                 D  U     D
E|--------S--------------------------S-------------|
B|--0--0--L--------------------0--0--L-------------|
G|--1--1--A--4-----------------2--2--A--4----------|
D|--2--2--P--4--------2h4-2----2--2--P--4----------|
A|--2--2-----2----2h5-------5--0--0-----2--2h5--2h5|
E|--0--0-------------------------------------------|

    D  U                       D  U
E|--------S--------------------------S-----S|
B|--0--0--L--------------------0--0--L-----L|
G|--1--1--A--4-----------------2--2--A--4--A|
D|--2--2--P--4--------2h4-2----2--2--P--4--P|
A|--2--2-----2----2h5-------5--0--0-----2---|
E|--0--0------------------------------------|

Verse:

    D  U     D     D  U     D
E|--------S-----S--------S-----S|      
B|--0--0--L-----L--0--0--L-----L| 
G|--1--1--A--4--A--2--2--A--4--A|  4x
D|--2--2--P--4--P--2--2--P--4--P|  
A|--2--2-----2-----0--0-----2---|
E|--0--0------------------------|


Riff: (Play this after you play the Verse 4 times)

    D  U                       D  U
E|--------S--------------------------S-----S|
B|--0--0--L--------------------0--0--L-----L|
G|--1--1--A--4-----------------2--2--A--4--A|
D|--2--2--P--4--------2h4-2----2--2--P--4--P|
A|--2--2-----2----2h5-------5--0--0-----2---|
E|--0--0------------------------------------|
Tap to rate this tab
 
# A B C D E F G H I J K L M N O P Q R S T U V W X Y Z