Jack Johnson - Enemy tab

-------------------------------------------------------------------------------
			  Enemy - Jack Johnson
-------------------------------------------------------------------------------
Tabbed by: Anthony Schrier
Email:

Tuning:
Verse
e|---------------------------------------------------------------------------|
B|---------------------------------------------------------------------------|
G|---------------------------------------------------------------------------|
D|------------------------------------------------------------5-----5-------5|
A|----8---7-----5----0----3---3---3------8---7---5---0---5s7-----7-----7-----|
C|----5------8-----8----8---8---8----0-----8---8---0---0----0----0----0------|

e|---------------------------------------------------------------------------|
B|---------------------------------------------------------------------------|
G|---5-----------------------------------------------------------------------|
D|-------5-------------------------------------------------------------------|
A|---------------------------------------------------------------------------|
C|--0---0--------------------------------------------------------------------|
Chorus
e|---------------------------------------------------------------------------|
B|---------------------------------------------------------------------------|
G|---------------3-------2------0--------------------------------------------|
D|-------3------------------------------2-----3-----5-----7----8----7--------|
A|----1-----1--------1------1------0-----------------------------------------|
C|-----------------------------------------0-----0--------8-------8-----8----|

e|---------------------------------------------------------------------------|
B|---------------------------------------------------------------------------|
G|------------------3-----------------------------------3------2------0------|
D|----5-------3-----------3-----3-----3-----3--------------------------------|
A|---------1-----1-----1-----1-----1-----1-----1-----1-----1------1----------|
C|------------------------------------------------------------------------0--|

e|---------------------------------------------------------------------------|
B|---------------------------------------------------------------------------|
G|---2------3------5------7-----8---------7-------5-------------------3------|
D|----------------------------------------------------------3----------------|
A|-----------------------------------------------------1---------1--------1--|
C|------0------0------0---5----------5--------8------------------------------|

e|---------------------------------------------------------------------------|
B|---------------------------------------------------------------------------|
G|--------------------3------------3--------------------0-------------0------|
D|----------3----------------3-----------------2---------------2-------------|
A|----1----------1-------1------1---------3---------3------3-------3---------|
C|---------------------------------------------------------------------------|

e|---------------------------------------------------------------------------|
B|---------------------------------------------------------------------------|
G|-----------------0---------------------------------------------------------|
D|---------2------------2-----0----------------------------------------------|
A|----3--------3-----3-----3-------------------------------------------------|
C|---------------------------------------------------------------------------|

e
Tap to rate this tab
 
# A B C D E F G H I J K L M N O P Q R S T U V W X Y Z