Song name
# A B C D E F G H I J K L M N O P Q R S T U V W X Y Z

Jack Johnson - Cookie Jar chords

Highlighted       Show chord diagrams
-------------------------------------------------------------------------------
			     Cookie Jar - Jack Johnson
-------------------------------------------------------------------------------
Tabbed by: Dak R.
Email:

Tuning: Standard

    F#m    Dbm     B    Dbm
e |--2------4------2-----4-|
b |--2------5------4-----5-|
g |--2------6------4-----6-|  
d |--4------6------4-----6-|
a |--4------4------2-----4-|
e |--2------4------2-----4-|

Repeat this through the whole song

Pretty easy to figure out the strumming
 pattern.. Just listen to the song
Tap to rate this tab
 
# A B C D E F G H I J K L M N O P Q R S T U V W X Y Z