Song name
# A B C D E F G H I J K L M N O P Q R S T U V W X Y Z

Jack Johnson - The News tab

E-----------------------------------|
B----------2---------------2--------|
G------2-----2---2-----2-----2---2--|
D----2---2-----2-----2---2-----2----|
A--0---------------0----------------|
E-----------------------------------|  repeat

   A                                  Bm
E-----------------------------------|----------------------------------|
B----------2---------------2--------|---------3---------------3--------|
G------2-----2---2-----2-----2---2--|-----4-----4---4-----4-----4---4--|
D----2---2-----2-----2---2-----2----|---4---4-----4-----4---4-----4----|
A--0---------------0----------------|-2---------------2----------------|
E-----------------------------------|----------------------------------|
A billion people died...
But not so many...

   A                                  C#m
E-----------------------------------|----------------------------------|
B----------2---------------2--------|---------5---------------5--------|
G------2-----2---2-----2-----2---2--|-----6-----6---6-----6-----6---6--|
D----2---2-----2-----2---2-----2----|---6---6-----6-----6---6-----6----|
A--0---------------0----------------|-4---------------4----------------|
E-----------------------------------|----------------------------------|
It's just make believe...

   Bm                                 D               Dm
E-----------------------------------|----------------------------------|
B----------3---------------3--------|---7-----7-----6---6-----6-----5--|
G------4-----4---4-----4-----4---4--|-----7-----7---------7-----7------|
D----4---4-----4-----4---4-----4----|-------7-----7---------7-----7----|
A--2---------------2----------------|-5---------------5----------------|
E-----------------------------------|----------------------------------| =
=20
So baby close...

          A       Bm
On the news tonight=20
A               Bm      A       Bm
Who's the one...
A                  C#m
You can't believe...
   Bm       D   C#
So baby...=20

   Bm                                 F#m   =20
E-----------------------------------|----------------------------------|
B----------3---------------3--------|---------2---------------2--------|
G------4-----4---4-----4-----4---4--|-----2-----2---2-----2-----2---2--|
D----4---4-----4-----4---4-----4----|---4---4-----4-----4---4-----4----|
A--2---------------2----------------|----------------------------------|
E-----------------------------------|-2---------------2----------------| =

...news tonight   (2x)

   A                                  E
E-----------------------------------|----------------------------------|
B----------2---------------2--------|----------------------------------|
G------2-----2---2-----2-----2---2--|---------1---------------1--------|
D----2---2-----2-----2---2-----2----|-----2-----2---2-----2-----2---2--|
A--0---------------0----------------|---2---2-----2-----2---2-----2----|
E-----------------------------------|-0---------------0----------------|
Mmm...

A             Bm
Why don't the...
A             Bm
At least they...
A             C#m
It's just...
Bm            D   Dm
So baby...=20

A   Bm   A--

Tap to rate this tab
# A B C D E F G H I J K L M N O P Q R S T U V W X Y Z