Song name
# A B C D E F G H I J K L M N O P Q R S T U V W X Y Z

Jack Johnson - Crying Shame tab

Pretty simple tab. The first note that you bend, you have to bend slowly.

e|-----------x----x--x--x--x-----x----x-x---x--x-------x---------------------|
B|--12-------x----9--x--x--x-----x----x-x---x--x-------x-----12-----10-------|
G|--14b16----11p9-9--9--9--x-----x----9-9---9--9h11p9--9-----14b16--12b14----|
D|-----------9----x--9--9--11----9----9-9---9--9-------11--------------------|
A|-----------x----x--x--x--x-----9h11p9-9---9--x-------x---------------------|
E|-----------x----x--x--x--x-----x----x-x---x--x-------x---------------------|

e|--x-----x-----x--------------------------------------------------------------|
B|--9-----9-----7--------------------------------------------------------------|
G|-11b13-13----9b11b9b11/13---------------------------------------------------|
D|--x-----x-----x--------------------------------------------------------------|
A|--x-----x-----x--------------------------------------------------------------|
E|--x-----x-----x--------------------------------------------------------------|
Tap to rate this tab
 
# A B C D E F G H I J K L M N O P Q R S T U V W X Y Z