Jack Johnson - Upside Down tab

e|---------------------------------------------------------------------------|
B|---------------------------------------------------------------------------|
G|-------4-------4--4h6---------------------------------4----------4----4h6--|
D|--4h6-----4h6----------4---4h6----4h6--4--2-----4h6-------4h6--------------|
A|---------------------------------------------------------------------------|
E|---------------------------------------------------------------------------|

e|---------------------------------------------------------------------------|
B|---------------------------------------------------------------------------|
G|--4--4h6---4h6---4---2---6---2--6--6---7--6---4---2---4---6---4--4---4---6-|
D|---------------------------------------------------------------------------|
A|---------------------------------------------------------------------------|
E|---------------------------------------------------------------------------|

e|---------------------------------------------------------------------------|
B|---------------------------------------------------------------------------|
G|---------------------------------------------------------------------------|
D|-4---4p2----6---2---6--6--7--6--4--2--4--6---4--4--4--4--6---4---2--2--2---|
A|---------------------------------------------------------------------------|
E|---------------------------------------------------------------------------|

e|--------------------------------------------------------|
B|--------------------------------------------------------|
G|--------------------------------------------------------|
D|--9--6--9--9--9--6---6--4--4--2--9----------------------|x3
A|--------------------------------------------------------|
E|--------------------------------------------------------|

e|---------------------------------------------------------------------------|
B|---------------------------------------------------------------------------|
G|---------------------------------------------------------------------------|
D|-6---9---9---9--9---6--6--4---6---4---4p2----------------------------------|
A|---------------------------------------------------------------------------|
E|---------------------------------------------------------------------------|

the last part of the song i added it is the same tune as when you sing it so this isn't 
the chords for the song
Tap to rate this tab
 
# A B C D E F G H I J K L M N O P Q R S T U V W X Y Z