Song name
# A B C D E F G H I J K L M N O P Q R S T U V W X Y Z

Jack Johnson - Traffic In The Sky tab

=====================================
Artist:		Jack Johnson
Song:		Traffic in the sky
Tabber:		graydeath85
Mail:		graydeath85[at]gmx.de
=====================================

My fingering for this song. I replaced some of the Bars with D Shapes, to make
the overall sound more open and clearer. The notes are identical with the way
it is played on album. 

At the beginning of the refrain i used D shapes, too, to add a little variety 
and also to add to the clarity. Practicing this tab will get your D shapes
flowing! :)



Repeat throughout Intro/Verse:
 
    D			    F#m	
E|-----------------------|-----5------5----------|
B|-----7------7----------|-------7-------7----5--|
G|-------7-------7----7--|----------6------6-----|
D|----------7------7-----|--4--------------------|
A|--5--------------------|-----------------------|
E|-----------------------|-----------------------|

    C			    Em7
E|-----------------------|-----------------------|
B|-----5------5----------|-----8------8----------|
G|-------5-------5----5--|-------7-------7----7--|
D|----------5------5-----|----------9------9-----|
A|--3--------------------|--7--------------------|
E|-----------------------|-----------------------|



Bridge:

    A         G#   G        
E|--9----|----8-|--7-----|-----------------------|
B|--10---|----9-|--8-----|-----------------------|
G|--9----|----8-|--7-----|-----6------6----------|
D|--7----|----6-|--5-----|-------7-------7----7--|
A|-------|------|--------|----------7------7-----|
E|-------|------|--------|--5--------------------|

Refrain

    D                       Bm
E|-----------------------|-----------------------|
B|-----7------7----------|-----------------------|
G|-------7-------7----7--|-----7------7----------|
D|----------7------7-----|-------9-------9----9--|
A|--5--------------------|----------9------9-----|
E|-----------------------|--7--------------------|

    G                       A
E|-----------------------|-----------------------|
B|-----------------------|-----------------------|
G|-----4------4----------|-----6------6----------|
D|-------5-------5----5--|-------7-------7----7--|
A|----------5------5-----|----------7------7-----|
E|--3--------------------|--5--------------------|
Tap to rate this tab
 
# A B C D E F G H I J K L M N O P Q R S T U V W X Y Z