Jack Johnson - What You Thought You Need tab

-----------------------------------------------------------------------------
                           What You Thought You Need
                                 Jack Johnson
-----------------------------------------------------------------------------

Tabbed by: Sam Hall
Tuning: Standard w/ Low C (CADGBe)

Key:
| /  slide up
| \  slide down
| h  hammer-on
| p  pull-off
| ~  vibrato
| +  harmonic
| x  Mute note


Chords:

Hammer-On to the second fret on the A string when needed

      C

e|---------------------|
B|----1----------------|
G|----0----------------|
D|----0h2---7----9-----|
A|----3-----5----7-----|
C|----0-----5----7-----|

Melody at the end:

e|------------------------------------------------------|
B|------------------------------------------------------|
G|------------------------------------------------------|
D|---------2/5--------7-----------5-------3-----2-------|  (x2)
A|------3-------7--------8------------7------------3----|
C|--0--------------0--------0----------------0----------| 



e|-------------------------------|
B|-------------------------------|
G|-------------------------------|
D|----------2-----------2--------|
A|-----3----------3-----------3--|
C|--0-----0-----0-----0-----0----|



e|-------------------------------|
B|-------------------------------|
G|-------------------------------|
D|----------9-----------9--------|  
A|-----7----------7-----------0--|
C|-/7-----7-----7-----7-----7----|



e|-------------------------------|
B|-------------------------------|
G|-------------------------------|
D|----------2-----------2--------|
A|-----3----------3-----------3--|
C|--0-----0-----0-----0-----0----|



e|---------------------------------------|
B|---------------------------------------|
G|---------------------------------------|
D|----------9-----------9/10-10/12-12----|
A|-----7----------7----------------------|
C|--7-----7-----7-----7------------------|



e|-------------------------------|
B|-------------------------------|
G|-------------------------------|
D|----------7-----------7--------|  (x2)
A|-----5----------5-----------5--|
C|--5-----5-----5-----5-----5----|


    "just  like  it  feels"

e|----------------------------------|
B|----------------------------------|
G|----------------------------------|
D|----7-----5----3-----2------------|
A|----8-----7----5-----3------------|
C|---------------------0------------|



That's all.
Tap to rate this tab
 
# A B C D E F G H I J K L M N O P Q R S T U V W X Y Z