Jack Johnson - Symbol In My Driveway tab

  A               A                E             E            (Eb)
e|--------------------------------|--------------------------------|
B|--------------------------------|----2-------2-------2-----------|
G|--------------------------------|4-4---4-4-4---4-4-4---4-4-4-3-3-|
D|2-2-4-2-2-2-4-2-2-2-4-2-2-2-4-2-|2-2-2-2-2-2-2-2-2-2-2-2-2-2-1-1-|
A|0-0-0-0-0-0-0-0-0-0-0-0-0-0-0-0-|--------------------------------| 
E|--------------------------------|--------------------------------| 


  D               D                A              E  
e|--------------------------------|---------------------------------|
B|--------------------------------|--------------------2-------2----|
G|2-2-4-2-2-2-4-2-2-2-4-2-2-2-4-2-|----------------4-4---4-4-4---4--|
D|0-0-0-0-0-0-0-0-0-0-0-0-0-0-0-0-|2-2-4-2-2-2-4-2-2-2-2-2-2-2-2-2--|
A|--------------------------------|0-0-0-0-0-0-0-0------------------| 
E|--------------------------------|---------------------------------|

This is the mainriff in the intro but is played through the whole song.
I ound some version of the tabs right here but wrote them a bit easier to play.
Tap to rate this tab
 
# A B C D E F G H I J K L M N O P Q R S T U V W X Y Z