Song name
# A B C D E F G H I J K L M N O P Q R S T U V W X Y Z

Jack Johnson - Thicker Than Water tab

Gtr I (E A D G B E) - 'Thicker Than Water' Todd Hannigan
Thicker Than Water Soundtrack

Tabbed by: David Hawkey


The whole song is just these three parts basically. I've only seen tabs around
for the Thicker Than Water Jam by Jack Johnson. Some people seem to have mistaken
the two.


|----------------------------|
|----------------------------|
|-1--1---1--1--1--1--------1-|
|-2--2---2--2--2--2--------2-|
|-2--2---2--2--0--0h2------2-|
|-0--0h2p0--0--x--x------0-0-|


|-------------------|
|-------------------|
|---0---1---0---1---|
|---x---2---x---2---|
|---2---2---2---2---|
|---2---0---2---0---|


|-----------------------------------------------------------|
|-----------------------------------------------------------|
|--6-------------------------1---1---1---1---1-----1----1---|
|--6---6---7---4-------------2---2---2---2---2-----2----2---|
|--4---6---7---4-------2-4---2---2---2---2---0h2---2----2---|
|------4---5---2---2h4-------0---0h2p0---0---x-----x--0-0---|
Tap to rate this tab
# A B C D E F G H I J K L M N O P Q R S T U V W X Y Z