Song name
# A B C D E F G H I J K L M N O P Q R S T U V W X Y Z

Jack Johnson - Wasting Time tab

Pick up into 1st solo
  1...                2...                3...    (Play with a swing rhythm)
e|-----------------------------------------------------------------------|
B|-----------------------------------------------------------------------|
G|------------------------------------------------------------7----------|
D|---------------------------------------------------------7----7--------|
A|------------------------------------------------------/9---------9--7--|
E|-----------------------------------------------------------------------|

Solo
e|-----------------------------------------------------------------------|
B|-----------------------------------------------------------------------|
G|-7h9--7h9--7-7------------11h12-11h12--11-11---9-7h9p7-----------------|
D|-----------------9-(7)----------------------------------9--7h9p7-------|
A|------------------------------------------------------------------9----|
E|-----------------------------------------------------------------------|  x2

Play the same for the second solo
Tap to rate this tab
 
# A B C D E F G H I J K L M N O P Q R S T U V W X Y Z