Song name
# A B C D E F G H I J K L M N O P Q R S T U V W X Y Z

Jack Johnson - Bubble Toes tab

Very easy song to learn fun to play
listen to it to figure when to play each part


Play riff A twice than riff B and repeat until 0:48 in the song than play riff c
until the end with the solo at 1:23


Riff A
e-----------------------------------|
b-----------------------------------|
g-----------------------------------|
d-7--7--x---------9--9--x-5--5-x----|
a-5--5--x-7--7--x-7--7--x-3--3-x----|
E---------5--5--x-------------------|

Riff B
e---------------------------------------|
b---------------------------------------|
g---------------------------------------|
d-------x-----2-x----3-x----2-x---------|
a-----5-x-------x------x------x---------|
E--3----x--3----x-3----x-3----x---------|



Riff C

try and figure out strumming pattern here is the fingering to play each chord

    G          C           D
e-3------5------7-----------------------|
b-3------5------7-----------------------|
g-4------5------7-----------------------|
d-5------5------7-----------------------|
a-5------3------5-----------------------|
E-3-------------------------------------|


And the solo at 1:23

e----------------------------------|
b----------------------------------|
g----------------------------------|
d-------------------2-2-2-4-2-0----|
a-------2-3-5-------------------3--|
E--3-3---------3-------------------|
Tap to rate this tab
# A B C D E F G H I J K L M N O P Q R S T U V W X Y Z