Song name
# A B C D E F G H I J K L M N O P Q R S T U V W X Y Z

Jack Johnson - Sexy Plexi tab

-------------------------------------------------------------------------------
                             Sexy Plexi - Jack Johnson
-------------------------------------------------------------------------------
Tabbed by: Teagan Mago
E-mail: TeaganMago@gmail.com

I'm not 100% sure about about the solo, but I'm sure about the rest of the song.  This 
took a long time so please show me some love. :)

Tips:
The "x" indicates a guitar slap/muted note.  I generally slap my thumb and hit multiple 
strings, while palm muting. Make sure to listen to the song and try to capture the 
timing.  You must be able to quickly change barre chord shapes to follow the original track.

Chord shapes:
F#M shape, switching to Bm shape
For pre-chorus and chorus, it's a barre chord E shape, moving up the frets.
It's important to lift up in between the chords to pluck the B and G strings as 
indicated in the tab.

Tuning: Standard

Intro Solo

e|-----------7-----5p3--2--3--0----------------------------------------------|
B|----3p2p0-----0----------------3--2--0--0h2/3/5--7-------------------------|
G|---------------------------------------------------------------------------|
D|---------------------------------------------------------------------------|
A|---------------------------------------------------------------------------|
E|---------------------------------------------------------------------------|

Verse:

Sexy sexy made up of plexi disaster

e|----------------------------------------------------------------------------|
B|-----------------------------3----3----3---0--------------------------------|
G|----3--------3---3---0-------4----4----4---0--------------------------------|
D|----4--------4---4---0---------------4--------------------------------------|
A|---------------4-----------2------------------------------------------------|
E|--2----x---2-------x------------x--------x----------------------------------|

Pushing and pulling conservative rolling, unlike plastic, easier to see through
e|----------------------------------------------------------------------------|
B|-----------------------------3----3----3---0--------------------------------|
G|----3--------3---3---0-------4----4----4---0--------------------------------|
D|----4--------4---4---0---------------4--------------------------------------|
A|---------------4-----------2------------------------------------------------|
E|--2----x---2-------x------------x--------x----------------------------------|

Just like glass with no ring, softer and sadder you sing

e|----------------------------------------------------------------------------|
B|-----------------------------3----3----3---0--------------------------------|
G|----3--------3---3---0-------4----4----4---0--------------------------------|
D|----4--------4---4---0---------------4--------------------------------------|
A|---------------4-----------2------------------------------------------------|
E|--2----x---2-------x------------x--------x----------------------------------|

Sexy sexy do your thing, learn to be shy and then you can sting
e|----------------------------------------------------------------------------|
B|-----------------------------3----3----3---0--------------------------------|
G|----3--------3---3---0-------4----4----4---0--------------------------------|
D|----4--------4---4---0---------------4--------------------------------------|
A|---------------4-----------2------------------------------------------------|
E|--2----x---2-------x------------x--------x----------------------------------|

Pre-chorus:

Plexi, plexi bend don't shatter - Once you're broken, shape won't matter

e|-----------------------------------------------------------------------|
B|-----------------------------------------------------------------------|
G|----3--------3---3---0----4---0----6---0-------------------------------|
D|----4--------4---4---0----5---0----7---0-------------------------------|
A|---------------4-------------------------------------------------------|
E|--2----x---2-------x----3---x----5---x---------------------------------|

Chorus:

You're breaking your mind by killing the time that kills you

e|---------------------------------------------------------------------------|
B|---------------------------------------------------------------------------|
G|----7----0-----6----0----4----0----3----0----------------------------------|
D|----9----0-----7----0----5----0----4----0----------------------------------|
A|---------------------------------------------------------------------------|
E|--7----x-----5----x----3----x----2----x------------------------------------|

But you can't blame the time, cause it's only in your mind

e|---------------------------------------------------------------------------|
B|---------------------------------------------------------------------------|
G|----7----0-----6----0----4----0----3----0----------------------------------|
D|----9----0-----7----0----5----0----4----0----------------------------------|
A|---------------------------------------------------------------------------|
E|--7----x-----5----x----3----x----2----x------------------------------------|


Chorus End:
e|--------------------------------------------------------|
B|------3----3----3---0------3----3----3---0--------------|
G|------4----4----4---0------4----4----4---0--------------|
D|--------------4--------------------4--------------------|
A|----2--------------------2------------------------------|
E|---------x--------x-----------x--------x----------------|

Verse:

Quickly quickly grow and then you'll know it is such an awkward show to see

e|--------------------------------------------------------------------------|
B|-----------------------------3----3----3---0------------------------------|
G|----3--------3---3---0-------4----4----4---0------------------------------|
D|----4--------4---4---0---------------4------------------------------------|
A|---------------4-----------2----------------------------------------------|
E|--2----x---2-------x------------x--------x--------------------------------|

And everyone you wanted to know and everyone you wanted to meet
e|--------------------------------------------------------------------------|
B|-----------------------------3----3----3---0------------------------------|
G|----3--------3---3---0-------4----4----4---0------------------------------|
D|----4--------4---4---0---------------4------------------------------------|
A|---------------4-----------2----------------------------------------------|
E|--2----x---2-------x------------x--------x--------------------------------|

Have all gone away
e|--------------------------------------------------------------------------|
B|-----------------------------3----3----3---0------------------------------|
G|----3--------3---3---0-------4----4----4---0------------------------------|
D|----4--------4---4---0---------------4------------------------------------|
A|---------------4-----------2----------------------------------------------|
E|--2----x---2-------x------------x--------x--------------------------------|

Pre-chorus:
well they've all gone away

e|-----------------------------------------------------------------------|
B|-----------------------------------------------------------------------|
G|----3--------3---3---0----4---0----6---0-------------------------------|
D|----4--------4---4---0----5---0----7---0-------------------------------|
A|---------------4-------------------------------------------------------|
E|--2----x---2-------x----3---x----5---x---------------------------------|

Chorus:
You're breaking your mind by killing the time that kills you

e|---------------------------------------------------------------------------|
B|---------------------------------------------------------------------------|
G|----7----0-----6----0----4----0----3----0----------------------------------|
D|----9----0-----7----0----5----0----4----0----------------------------------|
A|---------------------------------------------------------------------------|
E|--7----x-----5----x----3----x----2----x------------------------------------|

But you can't blame the time, cause it's only in your mind

e|---------------------------------------------------------------------------|
B|---------------------------------------------------------------------------|
G|----7----0-----6----0----4----0----3----0----------------------------------|
D|----9----0-----7----0----5----0----4----0----------------------------------|
A|---------------------------------------------------------------------------|
E|--7----x-----5----x----3----x----2----x------------------------------------|

Verse:

e|--------------------------------------------------------------------------|
B|-----------------------------3----3----3---0------------------------------|
G|----3--------3---3---0-------4----4----4---0------------------------------|
D|----4--------4---4---0---------------4------------------------------------|
A|---------------4-----------2----------------------------------------------|
E|--2----x---2-------x------------x--------x--------------------------------|

e|--------------------------------------------------------------------------|
B|-----------------------------3----3----3---0------------------------------|
G|----3--------3---3---0-------4----4----4---0------------------------------|
D|----4--------4---4---0---------------4------------------------------------|
A|---------------4-----------2----------------------------------------------|
E|--2----x---2-------x------------x--------x--------------------------------|

You're breaking your mind, you're breaking your mind

e|--------------------------------------------------------------------------|
B|-----------------------------3----3----3---0------------------------------|
G|----3--------3---3---0-------4----4----4---0------------------------------|
D|----4--------4---4---0---------------4------------------------------------|
A|---------------4-----------2----------------------------------------------|
E|--2----x---2-------x------------x--------x--------------------------------|

You're breaking your mind, you're breaking your mind

e|--------------------------------------------------------------------------|
B|-----------------------------3----3----3---0------------------------------|
G|----3--------3---3---0-------4----4----4---0------------------------------|
D|----4--------4---4---0---------------4------------------------------------|
A|---------------4-----------2----------------------------------------------|
E|--2----x---2-------x------------x--------x--------------------------------|

You're breaking your mind, you're breaking your mind

e|--------------------------------------------------------------------------|
B|-----------------------------3----3----3---0------------------------------|
G|----3--------3---3---0-------4----4----4---0------------------------------|
D|----4--------4---4---0---------------4------------------------------------|
A|---------------4-----------2----------------------------------------------|
E|--2----x---2-------x------------x--------x--------------------------------|

You're breaking your mind, you're breaking your mind
e|--------------------------------------------------------------------------|
B|-----------------------------3----3----3---0------------------------------|
G|----3--------3---3---0-------4----4----4---0------------------------------|
D|----4--------4---4---0---------------4------------------------------------|
A|---------------4-----------2----------------------------------------------|
E|--2----x---2-------x------------x--------x--------------------------------|

Pre-chorus:

mind, mindů

e|-----------------------------------------------------------------------|
B|-----------------------------------------------------------------------|
G|----3--------3---3---0----4---0----6---0-------------------------------|
D|----4--------4---4---0----5---0----7---0-------------------------------|
A|---------------4-------------------------------------------------------|
E|--2----x---2-------x----3---x----5---x---------------------------------|

Chorus:

e|---------------------------------------------------------------------------|
B|---------------------------------------------------------------------------|
G|----7----0-----6----0----4----0----3----0----------------------------------|
D|----9----0-----7----0----5----0----4----0----------------------------------|
A|---------------------------------------------------------------------------|
E|--7----x-----5----x----3----x----2----x------------------------------------|

e|---------------------------------------------------------------------------|
B|---------------------------------------------------------------------------|
G|----7----0-----6----0----4----0----3----0----------------------------------|
D|----9----0-----7----0----5----0----4----0----------------------------------|
A|---------------------------------------------------------------------------|
E|--7----x-----5----x----3----x----2----x------------------------------------|

End On (add vibrato to ending notes):

e|---------------------------------------------------------------------------|
B|-----3~--------------------------------------------------------------------|
G|-----4~--------------------------------------------------------------------|
D|---------------------------------------------------------------------------|
A|---------------------------------------------------------------------------|
E|---2-----------------------------------------------------------------------|



************************************

| /   slide up
| \   slide down
| h   hammer-on
| p   pull-off
| ~   vibrato
| +   harmonic
| x   Mute note
| b   Bend
| pb  Pre-bend
| br  Bend release
| pbr Pre-bend release
| brb Bend release bend

************************************
Tap to rate this tab
# A B C D E F G H I J K L M N O P Q R S T U V W X Y Z