Song name
# A B C D E F G H I J K L M N O P Q R S T U V W X Y Z

Jack Johnson - You Remind Me Of You tab

Jack Johnson-You remind me of you

Hey folks here's one of my favourite songs from the new JJ LP from here to now to 
you. Hope you like it. feel free to rate and to comment ;-)

Standard tuning (EADGBE)

Chords:
B (799877)
G#m (466444)
C#m7 (9119999) or (x46454)
F#7 (242322)
G# (466544)u can also play G#7 (464544)
C# (x46664)
E7 (x79797) or (020100)

Intro,Verse:

     B                  G#m               C#m7            F#7
-----------------------------------------------------------------------
-----------------------------------------------------------------------
-----------8------------------4------------------9--------------3------
-----9--------9----------6-------6-----------9-----9--------2-----2----
-----------------------------------------------------------------------
--7-----7-------7/4---4-----4--------4\9---9---9-----9/2--2---2-----2\7 

Well your mama made your pretty 
And your mama made you sweet
Your daddy gave you daydreams 
And more cushion in your seat 
Your mama gave you those windows 
To your beautiful soul
Your daddy got more love for you 
Then you could ever know 

You remind me of you 
Yes you do now 
You remind me of you 
Yes you do 

here comes the badubadubadu part at the end of the chorus :-)

   B      Bb  A   G#               C#m7         F#7
---------------------------------------------------------------------------
-----------------------4---------------------------------------------------
-------8-----------------5------------9--------------3---------------------
---9-------8--7---6----------6----9-----9--------2------2------------------
---------------------------------------------------------------------------
-7---7---6--5---4---4------4----9---9-----9/2--2---2------2\7--------------

Well your mama made a promise 
That your daddy's gonna keep 
Forever's how long 
Your mama's going to love your 
Daddy made you messy 
And your mama made you neat 
Forever's how long your daddy's gonna love your 
Mama made a clone 
So she won't be alone 
When the boys and me are getting 
So out of control 

You remind me of you 
Yes you do now 
You remind me of you 
Yes you do 

(same pattern as in the first verse and chorus)

then comes the bridge: ' When you cry,...'

   G#7                C#             E7       F#7      B
-------------------------------[------------------------------]
-----------------------6-------[------9-----------------------]
-------5-----------6-----6---6-[---7----------3---------8-----]
---4-----4---4-----------------[----------2---------9-----9---]repeated  
-----------------4---4-----4---[-7--7-------------------------]4 times
-4--4------4-------------------[--------2---2--/--7---7-----7-]

When you cry when you cry 
Well your mama's gonna dry your eyes
When you cry when you cry 
Well your mama's gonna dry your eyes
And your daddy's sure gonna try 
But only mama's gonna dry your eyes 
But your daddy's sure gonna try



that's the whole song... enjoy playing and thanx for rating

t.bingenheimer 
Tap to rate this tab
# A B C D E F G H I J K L M N O P Q R S T U V W X Y Z