Song name
# A B C D E F G H I J K L M N O P Q R S T U V W X Y Z

Jack Johnson - Ones And Zeros tab

-------------------------------------------------------------------------------
                             ONES AND ZEROS - Jack Johnson
-------------------------------------------------------------------------------
Tabbed by: Coldn
E-mail: bythemoment@ymail.com

Tuning: Standard (Capo 1st Fret)

e|---------------------------------------------------------------------------|
B|-----------------4----------------------------4----------------------------|
G|-------4------------4---------------4------------4-------------------------|
D|----------4---------------4------------4---------------4-------------------|
A|---2---------2---------2---------2--------2---------2----------------------|
E|---------------------------------------------------------------------------|


e|---------------------------------------------------------------------------|
B|-----------------4----------------------------4----------------------------|
G|-------4------------4---------------4------------4-------------------------|
D|----------4---------------4------------4---------------4-------------------|
A|---0---------0---------0---------0--------0---------0----------------------|
E|---------------------------------------------------------------------------|


e|---------------------------------------------------------------------------|
B|-----------------4----------------------------4----------------------------|
G|-------4------------4---------------4------------4-------------------------|
D|----------4---------------4------------4---------------4-------------------|
A|---------------------------------------------------------------------------|
E|---0---------0---------0--------0--------0-----------0---------------------|


e|---------------------------------------------------------------------------|
B|-----------------4----------------------------4----------------------------|
G|-------4------------4---------------4------------4-------------------------|
D|----------4---------------4------------4---------------4-------------------|
A|---2---------2---------2---------2--------2---------2----------------------|
E|---------------------------------------------------------------------------|


This is my first time learning a song by ear and trying to tab it so excuse
me if its incorrect but it sounds very close to me. I'm working on tabbing out 
the rest of the song but I haven't figured it all out yet.

Listen to song for timing.

Thanks!
Tap to rate this tab
 
# A B C D E F G H I J K L M N O P Q R S T U V W X Y Z