Song name
# A B C D E F G H I J K L M N O P Q R S T U V W X Y Z

Jack Johnson - Radiate tab

A#             Cm1           Cm2          Dm 
e|--6--|     e|--8---|     e|--3--|     e|--5--|
B|--6--|     B|--8---|     B|--4--|     B|--6--|
G|--7--|     G|--8---|     G|--5--|     G|--7--|
D|--8--|     D|--10--|     D|--5--|     D|--7--|
A|--8--|     A|--10--|     A|--3--|     A|--5--|
E|--6--|     E|--8---|     E|--3--|     E|--5--|




Intro:
e|---------------------------------------------------------------------|
B|---------------------------------------------------------------------|
G|---------------------------------------------------------------------|
D|---------------------------------------------------------------------|
A|--1--1--1-----1--3--3--3h5-3h5--3------------------------------------| 
E|-----------3---------------------------------------------------------| (x4)

OR

Intro:
e|---------------------------------------------------------------------|
B|---------------------------------------------------------------------|
G|---------------------------------------------------------------------|
D|-------------------------0---0---------------------------------------|
A|--1--1--1-----1--3--3---3---3--3-------------------------------------| 
E|-----------3---------------------------------------------------------| (x4)



A#       Cm1     A#        Cm1
You walk into the world you make
A#       Cm1               A#       Cm1
You lose yourself but you find your way
    Cm1
I'm gonna watch you 
A#  Cm1
Radiate 
A#  Cm2
Radiate 
A#  Cm1
Radiate 
A#  Cm2
Radiate 


A#         Cm1               A#     Cm1
We turn so slow I know it's hard to wait
A#         Cm1          A#       Cm1
Take your time, sun is yours to take
    Cm1
I'm gonna watch you
A#  Cm1
Radiate 
A#  Cm2
Radiate 
A#  Cm1
Radiate 
A#  Cm2
Radiate


       A#             Cm2
These rocks they hold heat
          Dm             Cm2
Pools of water cool your feet
       A#          Cm2
As you walk you believe
       Dm          Cm2
Every part of the dream


Mini Solo:

e|-----------------------------------------3-------------------------|
B|----1/3--1--1--3/4--3-1---3-3/6--4-3---4--6-4----------------------|
G|--3-------3--------------------------------------------------------|
D|-------------------------------------------------------------------|
A|-------------------------------------------------------------------| 
E|-------------------------------------------------------------------| 

e|-----------------------------------------3------3------------------|
B|----1/3--1--1--3/4--3-1---3-3/6--4-3---4--6-4-----6--4--3----------|
G|--3-------3--------------------------------------------------------|
D|-------------------------------------------------------------------|
A|-------------------------------------------------------------------| 
E|-------------------------------------------------------------------| 

(You can repeat the intro or the chords if you want)



I see you lost in what you create
All of time in this one single day
You take it in and you
Radiate (4x)

Follow your hands as they build
As they shape, as they follow your mind
And rose like a wave
Take it and you radiate
Radiate, gonna watch you radiate, radiate

These rocks they hold heat
Pools of water cool your feet
As you walk you believe
Every part of the dream



Rate and comment if you liked it!

Mateo Garrido Lecca
Tap to rate this tab
 
# A B C D E F G H I J K L M N O P Q R S T U V W X Y Z