Song name
# A B C D E F G H I J K L M N O P Q R S T U V W X Y Z

Jack Johnson - Ones And Zeros tab

-------------------------------------------------------------------------------
                             Ones and Zeros - Jack Johnson
-------------------------------------------------------------------------------
Tabbed by: Jacob Troia 
Email: jaketroia@yahoo.com

Tuning: C G C G C e

e|--------------0------0------|
B|-----------------0----------|
G|----------0h5------0--------|      x2
D|--------0-------------------|
A|----0h5--------5------------|
E|----------------------------|

e|--------------0-------0-------|
B|-----------------0------------|
G|----------0h5------0----------|   x2
D|--------0---------------------|
A|----0h3--------3--------------|
E|------------------------------|

e|-------------------------------|
B|---------------0---------------|
G|-----------------0-------------|   x2 (Then back to the first part)
D|----------0h5------5-----------|
A|--------0----------------------|
E|----0h5---------5--------------|

************************************

| /   slide up
| \   slide down
| h   hammer-on
| p   pull-off
| ~   vibrato
| +   harmonic
| x   Mute note
| b   Bend
| pb  Pre-bend
| br  Bend release
| pbr Pre-bend release
| brb Bend release bend

************************************
Tap to rate this tab
# A B C D E F G H I J K L M N O P Q R S T U V W X Y Z