Song name
# A B C D E F G H I J K L M N O P Q R S T U V W X Y Z

Jack Johnson - I Got You tab

This is a really nice song by Jack. This is a standard Tuning version of the song that I 
tabbed out(the recording is in open B or open Bb...) It's from a video I saw on 
martyzsongs YouTube page. I Think it sounds pretty decent and wanted to share.

So all credit goes to Marty Schwartz
http://www.youtube.com/watch?v=X_gGcKXpFEc



EBGDAE
Capo 4

Chords:

(C) (C2)(C3)(C4)(G) (G2)(G3)(D) (D2)(Em)(Am7)
|-0-|-3-|-0-|-0-|-3-|-0-|-0-|-2-|-2-|-0-|-0-|
|-1-|-0-|-0-|-1-|-0-|-1-|-0-|-3-|-3-|-0-|-1-|
|-0-|-0-|-0-|-0-|-0-|-0-|-0-|-2-|-2-|-0-|-0-|
|-2-|-2-|-2-|-4-|-0-|-0-|-0-|-0-|-4-|-2-|-2-|
|-3-|-3-|-3-|-3-|-2-|-2-|-2-|-x-|-x-|-2-|-0-|
|-x-|-x-|-x-|-x-|-3-|-3-|-3-|-x-|-x-|-0-|-x-|

Intro/Verse

  C2  C3   G1             C2  C3   G1G2 G3   C2  C3   G1
|-3-X-0----3-3-X-3-3-3-3--3-X-0----3-0.--0.--3-X-0----3-3-X-3-3-X-|
|-0-X---0--0-0-X-0-0-0-0--0-X---0--0-1.--0.--0-X---0--0-0-X-0-0-X-|
|-0-X------0-0-X-0-0-0-0--0-X------0-0.--0.--0-X------0-0-X-0-0-X-|
|-2-X------0-0-X-0-0-0-0--2-X------0-0.--0.--2-X------0-0-X-0-0-X-|
|-3-X------2-2-X-2-2-2-2--3-X------2-2.--2.--3-X------2-2-X-2-2-X-|
|-x-X------3-3-X-3-3-3-3--x-X------3-3.--3.--x-X------3-3-X-3-3-X-|
  d d      d u d u u d u  d d      d d   u   d d      d u d u u d

(fill for D chord)
  D D2  D
|-2-2.--2.--2-X----------------|
|-3-3.--3.--3-X----------------|
|-2-2.--2.--2-X----------------|
|-0-4.--0.--0-X------0-(0)-0-0-|
|-x-x.--x.--x-X--0h2h---2----2-|
|-x-x.--x.--x-X----------------|
  d d   u   u d      d  u  d d

Chorus
  C   C4    C     G                  D
|-0-0-0-----0-0-0-3-X-3-3-X-3--------2-2-X-2-2-2-2---------------|
|-1-1-1-----1-1-1-0-X-0-0-X-0--------3-3-X-3-3-3-3---------------|
|-0-0-0-0.--0-0-0-0-X-0-0-X-0-(X3)---2-2-X-2-2-2-2---------------|
|-2-2-4-----2-2-2-0-X-0-0-X-0--------0-0-X-0-0-0-0-----0-(0)-0-0-|
|-3-3-3-----3-3-3-2-X-2-2-X-2--------x-x-X-x-x-x-x-0h2h---2----2-|
|-x x-x-----x-x-x-3-X-3-3-X-3--------x-x-X-x-x-x-x---------------|
  d u d     u d u d d u u d u        d u d u u d u     d  u  d d

Bridge

 Em  G     Am7 C  G
|-0--3------0--0--3-3-|
|-0--0------1--1--0-0-|
|-0--0-(X3)-0--0--0-0-|
|-2--0------2--2--0-0-|
|-2--2------0--3--2-2-|
|-0--3------x--x--3-3-|
  d x u u d u...

Well that's about it. If you listen to the song it shouldn't be all that hard to figure out
Tap to rate this tab
 
# A B C D E F G H I J K L M N O P Q R S T U V W X Y Z