Song name
# A B C D E F G H I J K L M N O P Q R S T U V W X Y Z

Jack Johnson - Banana Pancakes tab

----------------------------------------------------------------------------------------|
----------------------------------------------------------------------------------------|
----------------------------------------------------------------------------------------|
----------------------------------------------------------------------------------------|
----------5---------------------------------------------- ------------------------------|
-5s7-------------7------5------3------0------3s5------0------3--------------------------|


-------------------------------------------------------|
-------------------------------------------------------|
-------------------------------------------------------|
-------------------------------------------------------|
----------5--------------------------------------------|
-5s7-------------7------5------3------0------3------0--|s=slide to
Tap to rate this tab
# A B C D E F G H I J K L M N O P Q R S T U V W X Y Z