Song name
# A B C D E F G H I J K L M N O P Q R S T U V W X Y Z

Jack Johnson - You And Your Heart chords

Highlighted       Show chord diagrams
Tabbed by: ccwinslow3

Tuning: Standard
    A                     G                 D
e|---------------------------------------------------------------------------|
B|---------------------------------------------------------------------------|
G|---------------------------------------------------------------------------|
D|--11-11-11-11-11-11-9-7-5-5-5-5-5-5-7-9-------------4-5-4-----------4-5-4--|
A|------------------------------------------5-5-5-5-5-------5-5-5-5-5--------|
E|---------------------------------------------------------------------------| X3

A                                G
Watch you when you say, what you are
                        D
And when you blame everyone, you broke again
A                                       G
Watch you change the frame or watch you when you
                     D
Take your aim at the sum of everything


    G            A
But you and your heart
          D       D/A  G
Shouldn't feel so far apart
        G               A
You can choose what you take
              D                 D/A      G    G#
Why you gotta break and make it feel so hard?

    A                     G                 D
e|---------------------------------------------------------------------------|
B|---------------------------------------------------------------------------|
G|---------------------------------------------------------------------------|
D|--11-11-11-11-11-11-9-7-5-5-5-5-5-5-7-9-------------4-5-4-----------4-5-4--|
A|------------------------------------------5-5-5-5-5-------5-5-5-5-5--------|
E|---------------------------------------------------------------------------| X2

    A                                   G
You lay there in the street like broken glass
                         D
Reflecting pieces of the sun, but you're not the flame
            A                             G
You cut the people passing by because you know
                                D
What you don't like it's just so easy, it's just so easy


    G            A
But you and your heart
          D       D/A  G
Shouldn't feel so far apart
        G               A
You can choose what you take
              D                 D/A      G    
Why you gotta break and make it feel so hard?


        G       A
Oh, and you and your heart
          D       D/A  G
Shouldn't feel so far apart
        G               A
You can choose what you take
              D                 D/A      G    G#
Why you gotta break and make it feel so hard?

    A           D
e|-----------------------------------|
B|-----------------------------------|
G|-----------------------------------|
D|--------11-11----------------------|
A|--12-12----------------9-10--------|
E|--------------10-10-10-------------| X4 then E

            A             D
You draw so many lines in the sand
         A              D
Lost the fingernails on your hands
           A              D
How you're gonna scratch any backs?
       A                  D               E
Better hope the tide will take our lines away


E
Take all our lines and
A        D         A        D
Hope the tide will take our lines and
A        D         A        D      E
Hope the tide will take our lines away
                     A
Take all our lines away
Tap to rate this tab
# A B C D E F G H I J K L M N O P Q R S T U V W X Y Z