Song name
# A B C D E F G H I J K L M N O P Q R S T U V W X Y Z

Jack Johnson - Holes To Heaven tab

holes to heaven
by
Jack Johnson from the album on and on

Standard tuning
Tabbed by Buster69
curly_boi@hotmail.com
This 100% right out of the on and on tab book
Listen to get timing amd rhythm

Intro  (Riff A)  Play 4 times
|---------------------------------------|
|---------------------------------------|
|---------------------------------------|
|---------------------------------------|
|---------------------------------------|
|---------------------------------------|
|--3--3--3--2-0-5---3---2---0--0--0-----|

|---------------------------------------|
|---------------------------------------|
|---------------------------------------|
|---------------------------------------|
|---------------------------------------|
|--3--3--3--2-0-5---3---2---0--0--0-----|

Verse
Gtr 1 w/Riff A (1 1/2 times)

Gtr 2 (elec.)clean  rhy. fig 1
|-------------7-----------7-------|
|-------------8-----------8-------|
|-------------9-----------9-------|
|-------------9-----------9-------|
|-------------7-----------7-------|
|---------------------------------|

Pre-Chorus Gtr 3 elec. clean
|---------------------------------------|-----------------------------------|
|---------------------------------------|-----------------------------------|
|---8-------------------8---------------|--------------------------8--------|
|------9---9-----9---9-------9--9---9---|----9-----9--9--9----9--------9--9-|
|---------------------------------------|-----------------------------------|
|---------------------------------------|-----------------------------------|
|
|   Gtr 2 clean elec.
|
|-----7---------------7-----|-----7-----------------7-----|
|-----7---------------7-----|-----7-----------------7-----|
|-----8---------------8-----|-----8-----------------8-----|
|-----9---------------9-----|-----9-----------------9-----|
|-----9---------------9-----|-----9-----------------9-----|
|-----7---------------7-----|-----7-----------------7-----|

Gtr 3
|-------------------------------------|------------------------------------------|
|-------------------------------------|------------------------------------------|
|-------------9------9----------------|------------------------------------------|
|--10---10---------------10----10--10-|-----10---10--10---------------------5h7--|
|-------------------------------------|---------------------------5----5h7-------|
|-------------------------------------|------------------------------------------|
|
|
|  Gtr 2
|-----8--------------8------|
|-----8--------------8------|
|-----9--------------9------|   X2
|-----10-------------10-----|
|-----10-------------10-----|
|-----8--------------8------|

Chorus
Gtr 1 with riff B Gtr 4
|----------------------------|----------------------|
|----------------------------|----------------------|
|----------------------------|----------------------|
|---7/9------------7---------|----5-------------4---|
|----------------------------|----------------------|
|----------------------------|----------------------|
|                            |                      |
|  Riff B Gtr 4 elec         |                      |
|----------------------------|----------------------|----------|-------|
|----------------------------|----------------------|----------|-------|
|----------------------------|----------------------|----------|-------|
|--10/12----------10---------|----9-------------7---|--5----7--|--7/9--|
|----------------------------|----------------------|----------|-------|
|----------------------------|----------------------|----------|-------|


Outro
Riff C
|----------7--5-------8----7--5---------------|
|------8----------7----------------8p5--------|
|--7------------------------------------------| X3
|---------------------------------------------|
|---------------------------------------------|
|---------------------------------------------|


|----------7--5--------8/10---10--10----8p5---|
|------8----------7---------------------------|
|-7-------------------------------------------|
|---------------------------------------------|
|---------------------------------------------|
|---------------------------------------------|

|----------7--5-------8----7--5---------------|
|------8----------7----------------8p5--------|
|--7------------------------------------------|
|---------------------------------------------|
|---------------------------------------------|
|---------------------------------------------|

|----------7--5--------8--7p5-----------------|
|------8----------7------------8--7p5---------|
|--7------------------------------------------|
|---------------------------------------------|
|---------------------------------------------|
|---------------------------------------------|

|----------7--5-------8----7--5---------------|
|------8----------7----------------8p5--------|
|--7------------------------------------------|
|---------------------------------------------|
|---------------------------------------------|
|---------------------------------------------|

|----------7--5--------8/10---10--10----8p5---|
|------8----------7---------------------------|
|-7-------------------------------------------|
|---------------------------------------------|
|---------------------------------------------|
|---------------------------------------------|


Enjoy.............. horizon has been defeated next ;)
Tap to rate this tab
# A B C D E F G H I J K L M N O P Q R S T U V W X Y Z