Song name
# A B C D E F G H I J K L M N O P Q R S T U V W X Y Z

Jack Johnson - Tomorrow Morning tab

I'm tabbing this is sections - not in bars - you really have to listen to this song to
get it right, it may seem wrong but after hours of procrastinating homework I've got to
know the song pretty well... I'm also skipping out the chords he plays between sections

E---------------------|---------------------|---------------------|
B---------------------|--------10-----------|---------------------|
G--------9p7----------|---7/11----11/2------|-------2-------------|
D------7-----9p7------|---------------------|---2/4---4/2p0-------|
A---/9----------------|---------------------|---------------------|
E----------------9/2--|---------------------|---------------1h2---|

E----------0---0------|----------5----------|
B----------0h3-0h3----|--------------0------|
G----------4---4------|----------5h6-5------|
D---------------------|---------------------|
A---------------------|---------------------|
E---2-1-0-------------|---0/5---------------|

There we go - that Solo takes three times as long to work out as the rest of the song! Hope it helps.
Tap to rate this tab
# A B C D E F G H I J K L M N O P Q R S T U V W X Y Z