Guitaretab - guitar tabs
Song name
# A B C D E F G H I J K L M N O P Q R S T U V W X Y Z

Jack Johnson - Sitting Waiting Wishing tab

Song: Sitting, Waiting, Wishing
Artist: Jack Johnson
Album: In Between Dreams

Intro
e|------------------------------------------|
B|------------------------------------------|
G|--5-5--x--5-5-5-5--x--4-4--x--4-4-4-4--x--|
D|--7-7--x--5-5-5-5--x--5-5--x--3-3-3-3--x--|
A|--7-7--x--7-7-7-7--x--5-5--x--5-5-5-5--x--|
E|--5-5--x--5-5-5-5--x--3-3--x--3-3-3-3--x--|

e|----------------------------------------------|
B|----------------------5-5--x--5-5-5-5--x------|
G|--2-2--x--2-2-2-2--x--5-5--x--3-3-3-3--x------|
D|--3-3--x--1-1-1-1--x--5-5--x--5-5-5-5-x------|
A|--3-3--x--3-3-3-3--x--3-3--x--3-3-3-3--x------|
E|--1-1--x--1-1-1-1--x--------------------------|


Verse 1 (2x)
e|------------------------------------------|
B|------------------------------------------|
G|--5-5--x--5-5-5-5--x--4-4--x--4-4-4-4--x--|
D|--7-7--x--5-5-5-5--x--5-5--x--3-3-3-3--x--|
A|--7-7--x--7-7-7-7--x--5-5--x--5-5-5-5--x--|
E|--5-5--x--5-5-5-5--x--3-3--x--3-3-3-3--x--|

e|----------------------------------------------|
B|----------------------5-5--x--5-5-5-5---x-----|
G|--2-2--x--2-2-2-2--x--5-5--x--3-3-3-3---x-----|
D|--3-3--x--1-1-1-1--x--5-5--x--5-5-5-5--x-----|
A|--3-3--x--3-3-3-3--x--3-3--x--3-3-3-3---x-----|
E|--1-1--x--1-1-1-1--x--------------------------|


Chorus (2x)
e|-------0-----------0-----------0-----------0------|
B|-------0-----------0-----------0-----------0------|
G|-------1-----------1-----------1-----------1------|
D|--2-2--2--2-2-2-2--2--2-2-2-2--2--2-2-2-2--2------|
A|--2-2--2--2-2-2-2--2--2-2-2-2--2--2-2-2-2--2------|
E|--0-0-----0-0-0-0-----0-0-0-0-----0-0-0-0---------|

e|-----------0-----------0-----------0-----------0--|
B|--1-1-1-1--1--1-1-1-1--1--1-1-1-1--1--1-1-1-1--1--|
G|--0-0-2-2--2--2-0-0-0--0--0-0-2-2--2--2-0-0-0--0--|
D|--2-2-2-2--2--2-2-2-2--2--2-2-2-2--2--2-2-2-2--2--|
A|--0-0-0-0--0--0-0-0-0--0--0-0-0-0--0--0-0-0-0--0--|
E|--------------------------------------------------|

Verse 2 (2x)
e|------------------------------------------|
B|------------------------------------------|
G|--5-5--x--5-5-5-5--x--4-4--x--4-4-4-4--x--|
D|--7-7--x--5-5-5-5--x--5-5--x--3-3-3-3--x--|
A|--7-7--x--7-7-7-7--x--5-5--x--5-5-5-5--x--|
E|--5-5--x--5-5-5-5--x--3-3--x--3-3-3-3--x--|

e|----------------------------------------------|
B|----------------------5-5--x--5-5-5-5--x------|
G|--2-2--x--2-2-2-2--x--5-5--x--3-3-3-3--x------|
D|--3-3--x--1-1-1-1--x--5-5--x--5-5-5-5-x------|
A|--3-3--x--3-3-3-3--x--3-3--x--3-3-3-3--x------|
E|--1-1--x--1-1-1-1--x--------------------------|


Chorus (2x)
e|-------0-----------0-----------0-----------0------|
B|-------0-----------0-----------0-----------0------|
G|-------1-----------1-----------1-----------1------|
D|--2-2--2--2-2-2-2--2--2-2-2-2--2--2-2-2-2--2------|
A|--2-2--2--2-2-2-2--2--2-2-2-2--2--2-2-2-2--2------|
E|--0-0-----0-0-0-0-----0-0-0-0-----0-0-0-0---------|

e|-----------0-----------0-----------0-----------0--|
B|--1-1-1-1--1--1-1-1-1--1--1-1-1-1--1--1-1-1-1--1--|
G|--0-0-2-2--2--2-0-0-0--0--0-0-2-2--2--2-0-0-0--0--|
D|--2-2-2-2--2--2-2-2-2--2--2-2-2-2--2--2-2-2-2--2--|
A|--0-0-0-0--0--0-0-0-0--0--0-0-0-0--0--0-0-0-0--0--|
E|--------------------------------------------------|

[ Tab from: http://www.guitaretab.com/j/jack-johnson/55370.html ]
Bridge (2x) listen to the song for the rhythm
e|------0---1---3--|
B|--5---0---1---3--|
G|--5---1---2---4--|
D|--5---2---3---5--|
A|--3---2---3---5--|
E|------0---1---3--|

Piano Break (2x)
e|------------------------------------------|
B|------------------------------------------|
G|--5-5--x--5-5-5-5--x--4-4--x--4-4-4-4--x--|
D|--7-7--x--5-5-5-5--x--5-5--x--3-3-3-3--x--|
A|--7-7--x--7-7-7-7--x--5-5--x--5-5-5-5--x--|
E|--5-5--x--5-5-5-5--x--3-3--x--3-3-3-3--x--|

e|----------------------------------------------|
B|----------------------5-5--x--5-5-5-5--x------|
G|--2-2--x--2-2-2-2--x--5-5--x--3-3-3-3--x------|
D|--3-3--x--1-1-1-1--x--5-5--x--5-5-5-5-x------|
A|--3-3--x--3-3-3-3--x--3-3--x--3-3-3-3--x------|
E|--1-1--x--1-1-1-1--x--------------------------|


Verse 3 (2x)
e|------------------------------------------|
B|------------------------------------------|
G|--5-5--x--5-5-5-5--x--4-4--x--4-4-4-4--x--|
D|--7-7--x--5-5-5-5--x--5-5--x--3-3-3-3--x--|
A|--7-7--x--7-7-7-7--x--5-5--x--5-5-5-5--x--|
E|--5-5--x--5-5-5-5--x--3-3--x--3-3-3-3--x--|

e|----------------------------------------------|
B|----------------------5-5--x--5-5-5-5--x------|
G|--2-2--x--2-2-2-2--x--5-5--x--3-3-3-3--x------|
D|--3-3--x--1-1-1-1--x--5-5--x--5-5-5-5-x------|
A|--3-3--x--3-3-3-3--x--3-3--x--3-3-3-3--x------|
E|--1-1--x--1-1-1-1--x--------------------------|


Chorus (4x)
e|-------0-----------0-----------0-----------0------|
B|-------0-----------0-----------0-----------0------|
G|-------1-----------1-----------1-----------1------|
D|--2-2--2--2-2-2-2--2--2-2-2-2--2--2-2-2-2--2------|
A|--2-2--2--2-2-2-2--2--2-2-2-2--2--2-2-2-2--2------|
E|--0-0-----0-0-0-0-----0-0-0-0-----0-0-0-0---------|

e|-----------0-----------0-----------0-----------0--|
B|--1-1-1-1--1--1-1-1-1--1--1-1-1-1--1--1-1-1-1--1--|
G|--0-0-2-2--2--2-0-0-0--0--0-0-2-2--2--2-0-0-0--0--|
D|--2-2-2-2--2--2-2-2-2--2--2-2-2-2--2--2-2-2-2--2--|
A|--0-0-0-0--0--0-0-0-0--0--0-0-0-0--0--0-0-0-0--0--|
E|--------------------------------------------------|


Lyrics:

Now I was sitting waiting wishing
That you believed in superstitions
Then maybe you'd see the signs
But Lord knows that this world is cruel
And I ain't the Lord, no I'm just a fool
Learning loving somebody don't make them love you

Must I always be waiting waiting on you?
Must I always be playing playing your fool?

I sing ya songs I dance a dance
I gave ya friends all a chance
Putting up with them wasn't worth never having you
And maybe you been through this before
But its my first time
So please ignore
The next few lines cause they're directed at you

I cant always be waiting waiting on you
I cant always be playing playing your fool
I keep playing your part
But its not my scene
Wont this plot not twist?
I've had enough mystery.
Keep building me up, then shooting me down
Well im already down
Just wait a minute
Just sitting waiting
Just wait a minute
Just sitting waiting

Well if I was in your position
Id put down all my ammunition
I'd wondered why'd it taken me so long
But Lord knows that I'm not you
And If I was I wouldn't be so cruel
Cause waiting on love ain't so easy to do

Must I always be waiting waiting on you?
Must I always be playing playing your fool?
No I cant always be waiting waiting on you
I cant always be playing playing your fool, fool

Related for Sitting Waiting Wishing tab