Song name
# A B C D E F G H I J K L M N O P Q R S T U V W X Y Z

Jack Johnson - A Brokedown Melody tab

My 1st so see what you think

Tabbed by JoEJoE

E----0---------------0---]
B----3---------------3---]
G----0---------------0---]   X 4
D----2---2/55/33-----2---]
A-3--3------------3--3---]
E------------------------]

then flows into

E-----0------0------0------0----]
B-----3------3------3------3----]
G-----0------0------0------0----]
D-----2------2------2------0----]
A--3--3---2--2---0--0------2----]
E-----------------------3-------]

I Like to play this over top of Jack's song Breakdown. The one with the UKE and it sounds real nice.
Tap to rate this tab
# A B C D E F G H I J K L M N O P Q R S T U V W X Y Z