Song name
# A B C D E F G H I J K L M N O P Q R S T U V W X Y Z

Jack Johnson - Belle tab

e---------------------------------------------|
B---------------------------------------------|
G------------------5-0--------------------5-0-|
D---5----5--5---3-5-----5----5--5---3-5-------|
A---6----6--6-----------6----6--6-------------|
E--7--7-7--7--7--------7--7-7--7--7-----------|

e---------------------------------------------|
B---------------------------------------------|
G------------------5-0--------------------5-0-|
D---5----5--5---3-5-----5----5--5---3-5-------|
A---6----6--6-----------6----6--6-------------|
E--7--7-7--7--7--------7--7-7--7--7-----------|

e------------3-3-3|
B----------3-3-3-3|
G----------2------|
D---5----5--------|
A---6----6--------|
E--8--8-8---------|

e---------------------------------------------|
B---------------------------------------------|
G------------------5-0--------------------5-0-|
D---5----5--5---3-5-----5----5--5---3-5-------|
A---6----6--6-----------6----6--6-------------|
E--7--7-7--7--7--------7--7-7--5--5-----------|

e--------------------------------------------|\--------|
B------------------------------------------------------| \
G------------------5-0--------------------5-0----------|  \
D---5----5--5---3-5-----5----5--5---3-5----------------|  /  REPEAT ALL OF WHAT YOU
A---6----6--6-----------6----6--6----------------------| /    SEE ON THIS PAGE FOR
E--5--5-5--7--7--------7--7-7--7--7--------------------|       THE REST OF THE SONG
Tap to rate this tab
# A B C D E F G H I J K L M N O P Q R S T U V W X Y Z