Song name
# A B C D E F G H I J K L M N O P Q R S T U V W X Y Z

Jack Johnson - Pirate Looks At 40 tab

     G                              C
     |   ‘   ‘   ‘                  |   ‘   ‘   ‘
e |------3-------3----|        e |------0-------0----|
B |------3-------3----|        B |------1-------1----|
G |----0---0---0---0--| Repeat G |----0---0---0---0--| Repeat
D |----------0--------|   4x   D |----------2--------|   3x
A |-------------------|        A |--3----------------|
E |--3----------------|        E |-------------------|

Repeat ‘G’ Pattern Once

     Am                 D7
     |   ‘   ‘     ‘    |   ‘   ‘   ‘
e |------0---------0--------2-------2----|
B |------1---------1--------1-------1----| 
G |----2---2-----2---2----2---2---2---2--|
D |----------0h2--------0-------0--------|
A |--0-----------------------------------|
E |--------------------------------------|

Repeat ‘G’ Pattern Twice


G C G Am D7 G
 
G
Mother, Mother Ocean, I have heard you call
C                                                      G
I’ve wanted to sail upon your waters since I was three feet tall
               Am    D7
‘Cuz you’ve seen it all,
               G
You’ve seen it all
Tap to rate this tab
# A B C D E F G H I J K L M N O P Q R S T U V W X Y Z