Song name
# A B C D E F G H I J K L M N O P Q R S T U V W X Y Z

Jack Johnson - Sharing Song tab

-------------------------------------------------------------------------------
			     The Sharing Song - Jack Johnson
-------------------------------------------------------------------------------
Tabbed by: Jordan Elek
Email: burnincheez@aim.com

Tuning: Standard (EADGBe)

I worked out two ways to play this. One with barre chords (more accurate to the 
piano in the song), and one with very basic chords (much easier to play, still 
sounds okay with the lyrics).

**Barre version**

Chords used:

    G7(a)   G7(b)     C     C7     F      Gm
e|--3-------3---------3-----8------8------10--|
B|--6-------3---------5-----8------10-----11--|
G|--4-------4---------5-----9------10-----12--|
D|--3-------3---------5-----8------10-----12--|
A|--5-------5---------3-----10-----8------10--|
E|--3-------3---------------8-----------------|

Intro: G7(a) C G7(b) C x2

       G7 C C  G7  G7 C C
e|-----3--3-3--3---3--3-3-----|
B|-----6--5-5--3---3--5-5-----|
G|-----4--5-5--4---4--5-5--x2-|
D|-----3--5-5--3---3--5-5-----|
A|-----5--3-3--5---5--3-3-----|
E|--3--3-------3---3----------|

Verse: G7(a) C G7(b) C x4, C7 F Gm F, G7(a) C G7(b) C, C7 F Gm F

       G7 C    G7     C            C7  F      Gm       F  
e|-----3--3-3--3---3--3-3----------8---8--8---10---10--8--8---|
B|-----6--5-5--3---3--5-5----------8---10-10--11---11--10-10--|
G|-----4--5-5--4---4--5-5--x4------9---10-10--12---12--10-10--|
D|-----3--5-5--3---3--5-5----------8---10-10--12---12--10-10--|
A|-----5--3-3--5---5--3-3----------10--8--8---10---10--8--8---|
E|--3--3-------3---3------------8--8--------------------------|

"It's always more fun...."      "If you have two...."

Repeat as necessary throughout the song. Try hammering on your index, 
ring and middle fingers to get a similar sound he makes with the piano.
_________________________________________________________
**Easy version**

Chords used:

    G  Cadd9    C    F
e|--3----3------0----1---|
B|--3----3------1----1---|
G|--0----0------0----2---|
D|--0----2------2----3---|
A|--2----3------3--------|
E|--3--------------------|

Intro: G Cadd9 G Cadd9 x2

e|-----3--3-3--3---3--3-----|
B|-----3--3-3--3---3--3-----|
G|-----0--0-0--0---0--0--x2-|
D|-----0--2-2--0---0--2-----|
A|-----2--3-3--2---2--3-----|
E|--3--3-------3---3--------|

Verse: G Cadd9 G Cadd9 x4, C F G F, G Cadd9 G Cadd9, C F G F

e|-----3--3-3--3---3--3----------0--1-1--3---3--1-1--|
B|-----3--3-3--3---3--3----------1--1-1--3---3--1-1--|
G|-----0--0-0--0---0--0--x4------0--2-2--0---0--2-2--|
D|-----0--2-2--0---0--2----------2--3-3--0---0--3-3--|
A|-----2--3-3--2---2--3-------3--3-------2---2-------|
E|--3--3-------3---3---------------------3---3-------|

"It's always more fun..."     "If you have two...."

===============================================================================
Tap to rate this tab
 
# A B C D E F G H I J K L M N O P Q R S T U V W X Y Z