Guitaretab - guitar tabs
Song name
# A B C D E F G H I J K L M N O P Q R S T U V W X Y Z

Jack Johnson - High Tide Or Low Tide Acoustic tab

Highlighted       Show chord diagrams
Jack Johnson Ė High Tide or Low Tide (Live cover)

*UPDATED* (like 20 times) it's FINISHED!!!

Amazing Bob Marley cover. I tried to complete it as much as I could. This is Jack Johnson's
part. I know itís not 100% correct but itís pretty close. Please leave a good rating, I worked 
hard on this. Thanks!

Standard Tuning

(Note: There is some muting in between each chord.)

Intro: F, C, Dm, A, A#, A#, A, A, A#, A#, F, F (x2)

   F              C                Dm            A            A#
E|---------------------------------5---5-5-----------------------------|
B|-1---1--1-------8----8--8--------6---6-6-------5---5-5------6---6-6--|
G|-2---2--2-------9----9--9--------7---7-7-------6---6-6------7---7-7--|
D|-3---3--3-------10---10-10-------7---7-7-------7---7-7------8---8-8--|
A|-3---3--3-------10---10-10-------5---5-5-------7---7-7------8---8-8--|
E|-1---1--1-------8----8--8----------------------5---5-5------6---6-6--|
 Yes in   High    seas      or the low           seas         Iím gonna

      A#           A             A                   A#         A#
E|-----------------------------------------------------------------------|
B|----6---6-6------5---5-5-------5---5-5-------------6---6-6-----6---6-6-|
G|----7---7-7------6---6-6-------6---6-6-------------7---7-7-----7---7-7-|
D|----8---8-8------7---7-7-------7---7-7-------------8---8-8-----8---8-8-|
A|----8---8-8------7---7-7-------7---7-7-------------8---8-8-----8---8-8-|
E|----6---6-6------5---5-5-------5---5-5-------------6---6-6-----6---6-6-|
      Be your      Friend              You know that Iím   gonna be

        F           F
E|------------------------------|
B|------1---1-1-----1---1-1-----|
G|------2---2-2-----2---2-2-----|
D|------3---3-3-----3---3-3-----|
A|------3---3-3-----3---3-3-----|
E|------1---1-1-----1---1-1-----|
   Your friend            Hey listen

   F              C                Dm            A            A#
E|---------------------------------5---5-5-----------------------------|
B|-1---1--1-------8----8--8--------6---6-6-------5---5-5------6---6-6--|
G|-2---2--2-------9----9--9--------7---7-7-------6---6-6------7---7-7--|
D|-3---3--3-------10---10-10-------7---7-7-------7---7-7------8---8-8--|
A|-3---3--3-------10---10-10-------5---5-5-------7---7-7------8---8-8--|
E|-1---1--1-------8----8--8----------------------5---5-5------6---6-6--|
       in High    tide      or the low           tide         Iíll be

      A#           A             A                   A#         A#
E|-----------------------------------------------------------------------|
B|----6---6-6------5---5-5-------5---5-5-------------6---6-6-----6---6-6-|
G|----7---7-7------6---6-6-------6---6-6-------------7---7-7-----7---7-7-|
D|----8---8-8------7---7-7-------7---7-7-------------8---8-8-----8---8-8-|
A|----8---8-8------7---7-7-------7---7-7-------------8---8-8-----8---8-8-|
E|----6---6-6------5---5-5-------5---5-5-------------6---6-6-----6---6-6-|
      By your      side                You know that Iíll     be by your
[ Tab from: http://www.guitaretab.com/j/jack-johnson/72841.html ]
        F           F           Dm             Dm
E|------------------------------5---5-5--------5---5-5---|
B|------1---1-1-----1---1-1-----6---6-6--------6---6-6---|
G|------2---2-2-----2---2-2-----7---7-7--------7---7-7---|
D|------3---3-3-----3---3-3-----7---7-7--------7---7-7---|
A|------3---3-3-----3---3-3-----5---5-5--------5---5-5---|
E|------1---1-1-----1---1-1------------------------------|
        side

(Note: Play Dm same rhythm over and over)

Dm
Well I heard her praying, praying, praying.
Dm
I heard my mother and she was praying in the night.
Dm                     Gm    Gm    Dm                       Gm     Gm   A   A 
And the words that she said          they still linger in my head
           A                       A                  Dm
She said a child is born into this world, he needs protection.
Dm               Gm     Gm    Dm                   Gm      Gm
God guard and protect us,   when were wrong please      correct us.
A/A#/C
       And stand by me in these

F    C          Dm  A
high seas or in low seas,
A#        A#      A
I'm gonna be your friend,
A             A#        A#      F      F
You know that I'm gonna be your friend.
          F        C           Dm  A
hey listen in high tide and in low tide,
A#      A#      A
I'll be by your side,
A             A#      A#      F     F
You know that Iíll be by your side.

Dm
I said I heard my mother she was cryin, cryin in the night
Dm                     Gm    Gm   Dm                        Gm    Gm   A   A
And the tears that she shed         they still linger in my head,
           A                       A               Dm
She said a child is born into this world, he needs protection
Dm               Gm     Gm    Dm                     Gm     Gm
God guard and protect us,   when we're wrong please      correct us.
A/A#/C
       And stand by me in these

F    C          Dm  A
high seas or in low seas,
A#        A#      A
I'm gonna be your friend,
A             A#        A#      F      F
You know that I'm gonna be your friend.
          F        C           Dm  A
hey listen in high tide or the low tide,
A#      A#      A
I'll be by your side,
A             A#      A#      F     F
You know that Iíll be by your side.

Outro: F, C, Dm, A, A#, A#, A, A, A#, A#, F, F (x2)

  Gm
E|---
B|-3-
G|-3-
D|-5-
A|-5-
E|-3-
Related for High Tide Or Low Tide Acoustic tab