Song name
# A B C D E F G H I J K L M N O P Q R S T U V W X Y Z

Jack Johnson - Relate To Me tab

Ive got 2 Versions!
Easy one and extrem easy one!


Version 1:

Play these all along the song (Intro/outro)
--------3---------2-------3----3------------|
--------3---------3-------3------3----------|
--------4---------2-------4--------4--------|
------5---------0-------5------------5------|
--------------------------------------------|
--------------------------------------------|

----3-----2------5----5-5----------|
----3-----3------3--------3---3----|
----4-----2------4----------4------|
--5------0-----5-------------------|
-----------------------------------|
-----------------------------------|

Version 2:

Repeat this all throught the Verse 1 and 2
----3-----2----3----5p3---|
----3-----3----3-------3--|
--0----------0------------|
--------0-----------------|
--------------------------|
--------------------------|

Verse 1:

G/D etc

Oh the night so young
Its been so long since Ive had any fun
I dont know whats wrong
I just wanne play a nother song
when the seasons changed
the leaves are still blowing throught my brain
mhhhh.....

Chorus:

 Em       Bm                 Em              G  D
Can you fell your heartache do you relate to me


Verse 2:

G/D etc

In an empty home
the man inside never fells alone
cause when he holds the lights
he know theres nothing daddy has to fight

Chorus:

 Em       Bm                 Em              G  D
Can you fell your heartache do you relate to me
Tap to rate this tab
 
# A B C D E F G H I J K L M N O P Q R S T U V W X Y Z