Guitaretab - guitar tabs
Song name
# A B C D E F G H I J K L M N O P Q R S T U V W X Y Z

Jack Johnson - Thicker Than Water Acoustic Jam tab

Jack Johnson
Thicker Than Water Acoustic Jam


it goes something like this... feel free to send corrections and what not to smitty_ms_03@hotmail.com

e|----------------------------------------------------------------------|
B|-------------------------------9-9-9-9-9------------------------------|
G|-9-9h11p9---9--9h11-------9-11-----------9h11p9----9----9-------------|
D|----------9----------9-11-----------------------11----11-11-9---------|
A|----------------------------------------------------------------------|
E|----------------------------------------------------------------------|

e|-9-12-9---------------12/9-9-9-7---7/9-9-9--9--9/12-12-12--12---------|
B|--------12-9-7-5/7----12/9-9-9-7---7/9-9-9--9--9/12-12-12--12---------|
G|----------------------------------------------------------------------|
D|----------------------------------------------------------------------|
A|----------------------------------------------------------------------|
E|----------------------------------------------------------------------|
[ Tab from: http://www.guitaretab.com/j/jack-johnson/79571.html ]
e|-12/9-9-9--9--9-7--7-7/9-9-9/12-12-12/14------------------------------|
B|-12/9-9-9--9--9-7--7-7/9-9-9/12-12-12/14------------------------------|
G|----------------------------------------------------------------------|
D|----------------------------------------------------------------------|
A|----------------------------------------------------------------------|
E|----------------------------------------------------------------------|

e|-7h9p7----------------------------------------------------------------|
B|------9-7h9p7---------------------------------------------------------|
G|-------------9-9h11p9--9--------------------------------9-------------|
D|---------------------11---9---------------------9-11-11---11----------|
A|----------------------------11-9-7---7--7--9/11-----------------------|
E|-----------------------------------9----------------------------------|

e|-------------------------9-7---9-9------------------------------------|
B|---------------------7/9-----9----------------------------------------|
G|---------13~-11~-9----------------------9------9------9------9--------|
D|----9-11---------------------------9h11---9h11---9h11---9h11----------|
A|-11-------------------------------------------------------------------|
E|----------------------------------------------------------------------|

e|---------------------------------------------12-9------9/7--7/9--9/12-|
B|--------------------------------------------------12-9-9/7--7/9--9/12-|
G|------9------9------9----9-11-13~-11p9--9-----------------------------|
D|-9h11---9h11---9h11---11--------------11------------------------------|
A|----------------------------------------------------------------------|
E|----------------------------------------------------------------------|
Related for Thicker Than Water Acoustic Jam tab
Advertisement will be closed in 10 seconds