Guitaretab - guitar tabs
Song name
# A B C D E F G H I J K L M N O P Q R S T U V W X Y Z

Jack Johnson - Let It Be Sung tab

Ive noticed that you can't find the solo from this song anywhere so i gave it a shot.  
me know what you think/suggestions.

Dan

v=vibrate
h=hammer on
/=slide
[ Tab from: http://www.guitaretab.com/j/jack-johnson/81558.html ]
e|--------------------------------------------------------------------------|
B|--------------------------------------------------------------------------|
G|------0----------------------0------------------------0-------------7-7-9-|
D|--0h2---5/7-5/7-7/9-7-5--0h2---5/7-7/5-5/7-7/9-5--0h2---5/7-5/7-7/9-------|
A|--------------------------------------------------------------------------|
E|--------------------------------------------------------------------------|


e|--------------------------------------------------------------------------|
B|--------------------------------------------------------------------------|
G|--------------------------------------------------------------------------|
D|--7-7-7/10--10--------7v--10v---------------------------------------------|
A|---------------10--------------10v----------------------------------------|
E|--------------------------------------------------------------------------|
Related for Let It Be Sung tab
Advertisement will be closed in 10 seconds