Song name
# A B C D E F G H I J K L M N O P Q R S T U V W X Y Z

Jack Johnson - Do You Remeber tab

e|---------------|-------------5-x-x-----|-----------3-x-x-----|-----------5-x-x-|
B|---------------|-----3-------5-x-x-----|-----------3-x-x-----|-----------7-x-x-|
G|-------------7-|-2h4---4-2---6-x-x-----|-----------4-x-x-----|-----------7-x-x-|
D|-------------7-|-------------7-x-x-----|-----------5-x-x-----|-----------7-x-x-|
A|------5-7-5--5-|-------------7-x-x-----|-7/9-7-5---5-x-x-----|-----5-7-5-5-x-x-|
E|--5/7----------|-----------5-5-x-x-(5)-|---------3-3-x-x-(3)-|-5/7-------5-x-x-|

Verse 1:
             DMaj             AMaj                  GMaj                  DMaj
e|---------------|-------------5-x-x-----|-----------3-x-x-----|-----------5-x-x-|
B|---------------|-----3-------5-x-x-----|-----------3-x-x-----|-----------7-x-x-|
G|-------------7-|-2h4---4-2---6-x-x-----|-----------4-x-x-----|-----------7-x-x-|
D|-------------7-|-------------7-x-x-----|-----------5-x-x-----|-----------7-x-x-|
A|------5-7-5--5-|-------------7-x-x-----|-7/9-7-5---5-x-x-----|-5/7-5/7-5-5-x-x-|
E|--5/7----------|-----------5-5-x-x-(5)-|---------3-3-x-x-(3)-|-----------5-x-x-|

             DMaj             AMaj                  GMaj        DMaj      AMaj
e|---------------|-------------5-x-x-----|-----------3-x-x-----|-5-x-x-----5-x-x-|
B|---------------|-----3-------5-x-x-----|-----------3-x-x-----|-7-x-x-----5-x-x-|
G|-------------7-|-2h4---4-2---6-x-x-----|-----------4-x-x-----|-7-x-x-----6-x-x-|x3
D|-------------7-|-------------7-x-x-----|-----------5-x-x-----|-7-x-x-----7-x-x-|
A|------5-7-5--5-|-------------7-x-x-----|-7/9-7-5---5-x-x-----|-5-x-x-----7-x-x-|
E|--5/7----------|-----------5-5-x-x-(5)-|---------3-3-x-x-----|-5-x-x-----5-x-x-|
Tap to rate this tab
# A B C D E F G H I J K L M N O P Q R S T U V W X Y Z