Song name
# A B C D E F G H I J K L M N O P Q R S T U V W X Y Z

Jack Ladder And The Dreamlanders - Cold Feet tab

http://www.jackladderandthedreamlanders.com/
Jack Ladder - Cold Feet


Intro/Verse Riff

E---------------------------------------------------------------------|
B----------------------------------------------12-12-12-10-10-10-9-9--|
G-11-11-11-9----------------------------------------------------------|
D-0--0--0--0--12-12-12-11---------------------------------------------|
A-------------0--0--0--0----16-16-16-14-------------------------------|
E---------------------------0--0--0--0--------------------------------|

That's most of the song

I'm pretty sure the chorus riff has more to it than this, but it's basically just

Chorus/Outro Riff

E--------------------------------------------------------------------|
B--------------------------------------------------------------------|
G--------------------------------------------------------------------|
D---12-12-12-11----11-11-11-12---------------------------------------|
A---------------------------------12-12-12-14------------------------|
E---------------------------------0--0--0--0-------------------------|

During outro there's a lightly distorted guitar part

E--------------------------------------------------------------------|
B--------------------------------------------------------------------|
G--13-14-13-11-9---13-14-13-11-9-11-13-13----------------------------|
D--------------------------------------------------------------------|
A--------------------------------------------------------------------|
E--------------------------------------------------------------------|

And that's basically it
Tap to rate this tab
# A B C D E F G H I J K L M N O P Q R S T U V W X Y Z