Guitaretab - guitar tabs
Song name
# A B C D E F G H I J K L M N O P Q R S T U V W X Y Z

Jack Off Jill - Hypocrite tab

Hypocrite
by
Jack off jill
Standard tuning

intro
1----------------------------------------------------------------------------------------------------------|
2----------------------------------------------------------------------------------------------------------|
3----------------------------------------------------------------------------------------------------------|
4----------------------------------------------------------------------------------------------------------|
5----------------------------------------------------------------------------------------------------------|
6---2-0-2-0-2-0-234------2-0-2-0-2-0-234---3-0-3-0-3-0-345----3----4----0----------------------------------|

verse
1-------------------------------------------|
2-------------------------------------------|
3-----drag----------------------------------|
4---7-----5-5-5-5-5-5-5-5-5---------REPEAT--|
5---7-----5-5-5-5-5-5-5-5-5-----------------|
6---5-----3-3-3-3-3-3-3-3-3-----------------|
            . . . . . . . . pm
[ Tab from: http://www.guitaretab.com/j/jack-off-jill/122345.html ]
bridge
1----------------------------------------------------------------------------------------------------------|
2----------------------------------------------------------------------------------------------------------|
3----------------------------------------------------------------------------------------------------------|
4----------9-9----9-----9---9---9------------------14--/---------------------------------------------------|
5----------9-9----9-----9---9---9------------------14--/---------------------------------------------------|
6----------7-7----7-----7---7---7------------------12--/---------------------------------------------------|
                  .pm                                 slide down
chorus
1-----------------------------------------------------------------------------|
2-----------------------------------------------------------------------------|
3----------later on strum muffled noted 3 times instead-----------------------|
4----777--x----777--x---7-7-7-7---77-7/---------------------------------------|
5----777--x----777--x---7-7-7-7---77-7/---------------------------------------|
6----555--x----555--x---5-5-5-5---55-5/---------------------------------------|
                                      slide down slow


x= lift so string is just touching metal fret bars (you should hear a clinky sound)

for those of you who own a zoom 505II effect's module I personally set it to A3

by Quintos Henderson Hunnerkongen_@hotmail.com
Related for Hypocrite tab