Song name
# A B C D E F G H I J K L M N O P Q R S T U V W X Y Z

Jack Off Jill - Strawberry Gashes tab

rite, this is the tabs 4 strawberry gashes by joj, a gr8 song by a gr8 band. listen to the song for the rhythm.

intro

e-----------------
b-----------------
g-----------------
d-----6-------2---
a-----6-------2---
e-----4-------0---


verse (palm mute)

e--------------------
b--------------------
g--------------------
d---666---222---444--
a---666---222---444--
e---444---000---222--

chorus

e-----------------------
b-----------------------
g-----------------------
d---6---4---2-----------
a---6---4---2-----------
e---4---2---0-----------


interlude
e--------------------------
g--------------------------
b--------------------------
d---6-------4------2-------
a---6-------4------2-------
e---4-------2------0-------

im sure thats 100% right, listen to the song over and over for rhythm!
enjoy!
ROCK ON!!
Tap to rate this tab
# A B C D E F G H I J K L M N O P Q R S T U V W X Y Z