Song name
# A B C D E F G H I J K L M N O P Q R S T U V W X Y Z

Jack Off Jill - American Made tab

American Made - Jack Off Jill

Intro/Verse
e|--------------------------------------------------------------------|
b|--------------------------------------------------------------------|
g|--------------------------------------------------------------------|
d|--4--4--4--4--4--4--4--------------4--4--4--4--4--4--4--------------|
a|--4--4--4--4--4--4--4--------------4--4--4--4--4--4--4--5--5--4--4--|
E|--2--2--2--2--2--2--2--5--5--4--4--2--2--2--2--2--2--2--------------|

--------------------------------------------------------------------|
--------------------------------------------------------------------|
--------------------------------------------------------------------|
--4--4--4--4--4--4--4--------------4--4--4--4--4--4--4--------------|
--4--4--4--4--4--4--4--------------4--4--4--4--4--4--4--5--5--4--4--|
--2--2--2--2--2--2--2--5--5--4--4--2--2--2--2--2--2--2--------------|

--------------------------------------------------------------------|
--------------------------------------------------------------------|
--------------------------------------------------------------------|
--4--4--4--4--4--4--4--------------4--4--4--4--4--4--4--------------|
--4--4--4--4--4--4--4--------------4--4--4--4--4--4--4--5--5--4--4--|
--2--2--2--2--2--2--2--5--5--4--4--2--2--2--2--2--2--2--------------|

--------------------------------------------------------------------|
--------------------------------------------------------------------|
--------------------------------------------------------------------|
--4--4--4--4--4--4--4--------------4--4--4--4--4--4--4--------------|
--4--4--4--4--4--4--4--------------4--4--4--4--4--4--4--5--5--4--4--|
--2--2--2--2--2--2--2--5--5--4--4--2--2--2--2--2--2--2--------------|

--------------------------------------------------------------------------------|
--------------------------------------------------------------------------------|
--------------------------------------------------------------------------------|
--4--4--3--4--------4--4--3--4--------4------------4---------4---------4--------|
--4--------4--4--3--4--------4--4--3--4------------4--4h5p4--4---------4--4h5p4-|
--2--------2--------2--------2--------2--5--4h5p4--2---------2--4h5p4--2--------|

Chorus
e|------------------------------------------------------------|
b|------------------------------------------------------------|
g|--7--4--5s4s5s4s5s4s5s4--4--4--7--4--5s4s5s4s5s4s5s4--4--4--|
d|--7--4--5s4s5s4s5s4s5s4--4--4--7--4--5s4s5s4s5s4s5s4--4--4--|
a|--5--2--3s2s3s2s3s2s3s2--2--2--5--2--3s2s3s2s3s2s3s2--2--2--|
E|------------------------------------------------------------|

---------------------------------------------------------|
---------------------------------------------------------|
--7--4--5s4s5s4s5s4s5s4--4--4--7--4--5s4s5s4s5s4s5s4--4--|
--7--4--5s4s5s4s5s4s5s4--4--4--7--4--5s4s5s4s5s4s5s4--4--|
--5--2--3s2s3s2s3s2s3s2--2--2--5--2--3s2s3s2s3s2s3s2--2--|
---------------------------------------------------------|


Verse
--------------------------------------------------------------------------------|
--------------------------------------------------------------------------------|
--------------------------------------------------------------------------------|
--4--4--3--4--------4--4--3--4--------4------------4---------4---------4--------|
--4--------4--4--3--4--------4--4--3--4------------4--4h5p4--4---------4--4h5p4-|
--2--------2--------2--------2--------2--5--4h5p4--2---------2--4h5p4--2--------|

Chorus
e|------------------------------------------------------------|
b|------------------------------------------------------------|
g|--7--4--5s4s5s4s5s4s5s4--4--4--7--4--5s4s5s4s5s4s5s4--4--4--|
d|--7--4--5s4s5s4s5s4s5s4--4--4--7--4--5s4s5s4s5s4s5s4--4--4--|
a|--5--2--3s2s3s2s3s2s3s2--2--2--5--2--3s2s3s2s3s2s3s2--2--2--|
E|------------------------------------------------------------|

------------------------------------------------------------|
------------------------------------------------------------|
--7--4--5s4s5s4s5s4s5s4--4--4--7--4--5s4s5s4s5s4s5s4--4--4--|
--7--4--5s4s5s4s5s4s5s4--4--4--7--4--5s4s5s4s5s4s5s4--4--4--|
--5--2--3s2s3s2s3s2s3s2--2--2--5--2--3s2s3s2s3s2s3s2--2--2--|
------------------------------------------------------------|

Outro
-----------------------------------------------------------------------|
-----------------------------------------------------------------------|
--5s4s5s4s5s4s5s4--4--4--5s4s5s4s5s4s5s4--4--4--5s4s5s4s5s4s5s4--4--4--|
--5s4s5s4s5s4s5s4--4--4--5s4s5s4s5s4s5s4--4--4--5s4s5s4s5s4s5s4--4--4--|
--3s2s3s2s3s2s3s2--2--2--3s2s3s2s3s2s3s2--2--2--3s2s3s2s3s2s3s2--2--2--|
-----------------------------------------------------------------------|

----------------------------|
----------------------------|
--5s4s5s4s5s4s5s4--4--4--4--|
--5s4s5s4s5s4s5s4--4--4--4--|
--3s2s3s2s3s2s3s2--2--2--2--|
----------------------------|

Intro/Verse
Chorus
???
Verse
Chorus
???
Chorus
Outro
Tap to rate this tab
 
# A B C D E F G H I J K L M N O P Q R S T U V W X Y Z