Song name
# A B C D E F G H I J K L M N O P Q R S T U V W X Y Z

Jack Off Jill - Everythings Brown tab

Everything's Brown (guitar)
by Jack Off Jill
Tabbed by Ottis (GoblinKing9@yahoo.com)


No guitar for a while.

e--------------------
B--------------------
G--9---5---12---11---
D--9---5---12---11---
A--7---3---10---9----
E--------------------
  ["I know your secret..."]

e------2----------------------
B------4---5-4-5-4------------
G--9---4--------------9--10---
D--9---4--------------9--10---
A--7---2--------------7--8----
E-----------------------------
  ["Don't try to hide it..."]

e--------------------
B--------------------
G--9---5-------------
D--9---5---5/7--5-4--
A--7---3---5/7--5-4--
E--0---0---3/5--3-2--
  ["Hello I'm here to invite you..."]

e----------------------
B----------------------
G--9--8--8-9--8--8-9---
D--9--8--8-9--8--8-9---
A--7--6--6-7--6--6-7---
E----------------------
  ["You can't erase what you are..."]

e-----------------------------------
B--------13p-12---------12-13p-12---
G-----12-------12-----12------------
D--14--------------14---------------
A-----------------------------------
E-----------------------------------
  Keyboard Part
Tap to rate this tab
# A B C D E F G H I J K L M N O P Q R S T U V W X Y Z