Song name
# A B C D E F G H I J K L M N O P Q R S T U V W X Y Z

Jack Off Jill - Lollirot tab

Help us improve GuitareTab! Take a short survey!
Verse 1                                          Lollirot - Jack Off Jill
e|-----------------------------------------------|
b|-----------------------------------------------|
g|-----------------------------------------------|
d|--7--7--6--6--9--7--7--6--6--9--7--7--6--6--9--|
a|--7--7--6--6--9--7--7--6--6--9--7--7--6--6--9--|
E|--5--5--4--4--7--5--5--4--4--7--5--5--4--4--7--|

e|-----------------------------------------------|
b|-----------------------------------------------|
g|-----------------------------------------------|
d|--7--7--6--6--9--7--7--6--6--9--7--7--6--6--9--|
a|--7--7--6--6--9--7--7--6--6--9--7--7--6--6--9--|
E|--5--5--4--4--7--5--5--4--4--7--5--5--4--4--7--|

e|-----------------------------------------------|
b|-----------------------------------------------|
g|-----------------------------------------------|
d|--7--7--6--6--9--7--7--6--6--9--7--7--6--6--9--|
a|--7--7--6--6--9--7--7--6--6--9--7--7--6--6--9--|
E|--5--5--4--4--7--5--5--4--4--7--5--5--4--4--7--|


Chorus 1
e|-----------------------------------------------|
b|-----------------------------------------------|
g|-----------------------------------------------|
d|--7--6--9--7--6--9--7--6--9--7--6--9--7--6--9--|
a|--7--6--9--7--6--9--7--6--9--7--6--9--7--6--9--|
E|--5--4--7--5--4--7--5--4--7--5--4--7--5--4--7--|


Verse 2
e|-----------------------------------------------|
b|-----------------------------------------------|
g|-----------------------------------------------|
d|--7--7--6--6--9--7--7--6--6--9--7--7--6--6--9--|
a|--7--7--6--6--9--7--7--6--6--9--7--7--6--6--9--|
E|--5--5--4--4--7--5--5--4--4--7--5--5--4--4--7--|

e|-----------------|
b|-----------------|
g|-----------------|
d|--7--7--6--6--9--|
a|--7--7--6--6--9--|
E|--5--5--4--4--7--|


Chorus 2
e|--------------------------------------|
b|--------------------------------------|
g|--------------------------------------|
d|--7--6--9--7--6--9--7--6--9--7--6--9--|
a|--7--6--9--7--6--9--7--6--9--7--6--9--|
E|--5--4--7--5--4--7--5--4--7--5--4--7--|


Verse 3
e|--------------------------------|
b|--------------------------------|
g|--------------------------------|
d|--7--7--6--6--9--7--7--6--6--9--|
a|--7--7--6--6--9--7--7--6--6--9--|
E|--5--5--4--4--7--5--5--4--4--7--|


e|--------------------------------------------------------|
b|--------------------------------------------------------|
g|--------------------------------------------------------|
d|--------------------------------------------------------|
a|--------------------------------------------------------|
E|--4--3--1--4--3--1--4--3--1--4--3--1--4--3--1--4--3--1--|

We are all candy.....
e|--------------------------------------------------------------------------|
b|--------------------------------------------------------------------------|
g|--------------------------6--6--6--6--6--6--6--6--5--5--5--5--5--5--5--5--|
d|--3--3--3--3--3--3--3--3--6--6--6--6--6--6--6--6--5--5--5--5--5--5--5--5--|
a|--3--3--3--3--3--3--3--3--4--4--4--4--4--4--4--4--3--3--3--3--3--3--3--3--|
E|--1--1--1--1--1--1--1--1--------------------------------------------------|
pm     .  .     .  .     .     .  .     .  .     .     .  .     .  .     .

e|--------------------------|
b|--------------------------|
g|--3--3--3--3--3--3--3--3--|
d|--3--3--3--3--3--3--3--3--|
a|--1--1--1--1--1--1--1--1--|
E|--------------------------|
pm     .  .     .  .     .

e|--------------------------------------------------------------------------|
b|--------------------------------------------------------------------------|
g|--------------------------6--6--6--6--6--6--6--6--5--5--5--5--5--5--5--5--|
d|--3--3--3--3--3--3--3--3--6--6--6--6--6--6--6--6--5--5--5--5--5--5--5--5--|
a|--3--3--3--3--3--3--3--3--4--4--4--4--4--4--4--4--3--3--3--3--3--3--3--3--|
E|--1--1--1--1--1--1--1--1--------------------------------------------------|
pm     .  .     .  .     .     .  .     .  .     .     .  .     .  .     .

e|--------------------------|
b|--------------------------|
g|--3--3--3--3--3--3--3--3--|
d|--3--3--3--3--3--3--3--3--|
a|--1--1--1--1--1--1--1--1--|
E|--------------------------|
pm     .  .     .  .     .

e|--------------------------------------------------------------------------|
b|--------------------------------------------------------------------------|
g|--------------------------6--6--6--6--6--6--6--6--5--5--5--5--5--5--5--5--|
d|--3--3--3--3--3--3--3--3--6--6--6--6--6--6--6--6--5--5--5--5--5--5--5--5--|
a|--3--3--3--3--3--3--3--3--4--4--4--4--4--4--4--4--3--3--3--3--3--3--3--3--|
E|--1--1--1--1--1--1--1--1--------------------------------------------------|
pm     .  .     .  .     .     .  .     .  .     .     .  .     .  .     .

e|--------------------------|
b|--------------------------|
g|--3--3--3--3--3--3--3--3--|
d|--3--3--3--3--3--3--3--3--|
a|--1--1--1--1--1--1--1--1--|
E|--------------------------|
pm     .  .     .  .     .

e|--------------------------------------------------------------------------|
b|--------------------------------------------------------------------------|
g|--------------------------6--6--6--6--6--6--6--6--5--5--5--5--5--5--5--5--|
d|--3--3--3--3--3--3--3--3--6--6--6--6--6--6--6--6--5--5--5--5--5--5--5--5--|
a|--3--3--3--3--3--3--3--3--4--4--4--4--4--4--4--4--3--3--3--3--3--3--3--3--|
E|--1--1--1--1--1--1--1--1--------------------------------------------------|
pm     .  .     .  .     .     .  .     .  .     .     .  .     .  .     .

e|--------------------------|
b|--------------------------|
g|--3--3--3--3--3--3--3--3--|
d|--3--3--3--3--3--3--3--3--|
a|--1--1--1--1--1--1--1--1--|
E|--------------------------|
pm     .  .     .  .     .

e|--------------------------------------------------------------------------|
b|--------------------------------------------------------------------------|
g|--------------------------6--6--6--6--6--6--6--6--5--5--5--5--5--5--5--5--|
d|--3--3--3--3--3--3--3--3--6--6--6--6--6--6--6--6--5--5--5--5--5--5--5--5--|
a|--3--3--3--3--3--3--3--3--4--4--4--4--4--4--4--4--3--3--3--3--3--3--3--3--|
E|--1--1--1--1--1--1--1--1--------------------------------------------------|
pm     .  .     .  .     .     .  .     .  .     .     .  .     .  .     .

e|--------------------------|
b|--------------------------|
g|--3--3--3--3--3--3--3--3--|
d|--3--3--3--3--3--3--3--3--|
a|--1--1--1--1--1--1--1--1--|
E|--------------------------|
pm     .  .     .  .     .

e|--------------------------|
b|--------------------------|
g|--5--5--6--5--5--3--3--3--|
d|--5--5--6--5--5--3--3--3--|
a|--3--3--4--3--3--1--1--1--|
E|--------------------------|

e|--------------------------------------------------------------------------|
b|--------------------------------------------------------------------------|
g|--------------------------6--6--6--6--6--6--6--6--5--5--5--5--5--5--5--5--|
d|--3--3--3--3--3--3--3--3--6--6--6--6--6--6--6--6--5--5--5--5--5--5--5--5--|
a|--3--3--3--3--3--3--3--3--4--4--4--4--4--4--4--4--3--3--3--3--3--3--3--3--|
E|--1--1--1--1--1--1--1--1--------------------------------------------------|
pm     .  .     .  .     .     .  .     .  .     .     .  .     .  .     .

e|--------------------------|
b|--------------------------|
g|--3--3--3--3--3--3--3--3--|
d|--3--3--3--3--3--3--3--3--|
a|--1--1--1--1--1--1--1--1--|
E|--------------------------|
pm     .  .     .  .     .

e|--------------------------------------------------------------------------|
b|--------------------------------------------------------------------------|
g|--------------------------6--6--6--6--6--6--6--6--5--5--5--5--5--5--5--5--|
d|--3--3--3--3--3--3--3--3--6--6--6--6--6--6--6--6--5--5--5--5--5--5--5--5--|
a|--3--3--3--3--3--3--3--3--4--4--4--4--4--4--4--4--3--3--3--3--3--3--3--3--|
E|--1--1--1--1--1--1--1--1--------------------------------------------------|
pm     .  .     .  .     .     .  .     .  .     .     .  .     .  .     .

e|--------------------------|
b|--------------------------|
g|--3--3--3--3--3--3--3--3--|
d|--3--3--3--3--3--3--3--3--|
a|--1--1--1--1--1--1--1--1--|
E|--------------------------|
pm     .  .     .  .     .

e|--------------------------------------------------------------------------|
b|--------------------------------------------------------------------------|
g|--------------------------6--6--6--6--6--6--6--6--5--5--5--5--5--5--5--5--|
d|--3--3--3--3--3--3--3--3--6--6--6--6--6--6--6--6--5--5--5--5--5--5--5--5--|
a|--3--3--3--3--3--3--3--3--4--4--4--4--4--4--4--4--3--3--3--3--3--3--3--3--|
E|--1--1--1--1--1--1--1--1--------------------------------------------------|
pm     .  .     .  .     .     .  .     .  .     .     .  .     .  .     .

e|--------------------------|
b|--------------------------|
g|--3--3--3--3--3--3--3--3--|
d|--3--3--3--3--3--3--3--3--|
a|--1--1--1--1--1--1--1--1--|
E|--------------------------|
pm     .  .     .  .     .

e|--------------------------------------------------------------------------|
b|--------------------------------------------------------------------------|
g|--------------------------6--6--6--6--6--6--6--6--5--5--5--5--5--5--5--5--|
d|--3--3--3--3--3--3--3--3--6--6--6--6--6--6--6--6--5--5--5--5--5--5--5--5--|
a|--3--3--3--3--3--3--3--3--4--4--4--4--4--4--4--4--3--3--3--3--3--3--3--3--|
E|--1--1--1--1--1--1--1--1--------------------------------------------------|
pm     .  .     .  .     .     .  .     .  .     .     .  .     .  .     .
e|--------------------------|
b|--------------------------|
g|--3--3--3--3--3--3--3--3--|
d|--3--3--3--3--3--3--3--3--|
a|--1--1--1--1--1--1--1--1--|
E|--------------------------|
pm     .  .     .  .     .


Chorus 3
e|--------------------------------------------------------------------------|
b|--------------------------------------------------------------------------|
g|--------------------------------------------------------------------------|
d|--7--6--9--7--6--9--7--6--9--7--6--9--7--6--9--7--6--9--7--6--9--7--6--9--|
a|--7--6--9--7--6--9--7--6--9--7--6--9--7--6--9--7--6--9--7--6--9--7--6--9--|
E|--5--4--7--5--4--7--5--4--7--5--4--7--5--4--7--5--4--7--5--4--7--5--4--7--|

e|--------------------------------------------------------------------------|
b|--------------------------------------------------------------------------|
g|--------------------------------------------------------------------------|
d|--7--6--9--7--6--9--7--6--9--7--6--9--7--6--9--7--6--9--7--6--9--7--6--9--|
a|--7--6--9--7--6--9--7--6--9--7--6--9--7--6--9--7--6--9--7--6--9--7--6--9--|
E|--5--4--7--5--4--7--5--4--7--5--4--7--5--4--7--5--4--7--5--4--7--5--4--7--|

e|--------------------------------------|
b|--------------------------------------|
g|--------------------------------------|
d|--7--6--9--7--6--9--7--6--9--7--6--9--|
a|--7--6--9--7--6--9--7--6--9--7--6--9--|
E|--5--4--7--5--4--7--5--4--7--5--4--7--|


End
e|-----------|
b|-----------|
g|-----------|
d|--5--5--5--|
a|--5--5--5--|
E|--3--3--3--|
Related for Lollirot tab