Guitaretab - guitar tabs
Song name
# A B C D E F G H I J K L M N O P Q R S T U V W X Y Z

Jack Off Jill - Author Unknown tab

-----------------------------------------------------------------------------
			     Author Unknown - Jack Off Jill
-----------------------------------------------------------------------------
Tabbed by: Evilduckychik
Email:

Tuning: Standard

Intro/

e|--------------------------------------------------------------------------|
B|--------------------------------------------------------------------------|
G|--6--4--------------------------------------------------------------------|
D|--6--4--4-----------------------------------------------------------------|
A|--4--2--4-----------------------------------------------------------------|
E|--------2-----------------------------------------------------------------|

Chorus
[ Tab from: http://www.guitaretab.com/j/jack-off-jill/47205.html ]
e|--------------------------------------------------------------------------|
B|--------------------------------------------------------------------------|
G|--------------6--------------------------6--4-----------------------------|
D|----6-6-6-6-6-6--------6-6-6-6-6-4-------6--4--4--------------------------|
A|----6-6-6-6-6-4--------6-6-6-6-6-4-------4--2--4--------------------------|
E|----4-4-4-4-4----------4-4-4-4-4-2-------------2--------------------------|

End

e|--------------------------------------------------------------------------|
B|--------------------------------------------------------------------------|
G|---4--6-------------------------------------------------------------------|
D|---4-6---4---------------------------------------------------------------|
A|---2--4---4---------------------------------------------------------------|
E|----------2---------------------------------------------------------------|


| /  slide up
| \  slide down
| h  hammer-on
| p  pull-off
| ~  vibrato
| +  harmonic
| x  Mute note
=============================================================================
Related for Author Unknown tab