Song name
# A B C D E F G H I J K L M N O P Q R S T U V W X Y Z

Jack Off Jill - Losing His Touch tab

|-----------------------------------------|
|-----------------------------------------|
|-----------------------------------------|
|0---0---0---0---3---0---0---0---2---0---1|
|0---0---0---0---3---0---0---0---2---0---1| Opening Verse 1 
|0---0---0---0---3---0---0---0---2---0---1|

|-----------------------------------------|
|-----------------------------------------|
|-----------------------------------------|
|0---0---0---0---3---0---0---0---2---0---3| 
|0---0---0---0---3---0---0---0---2---0---3| Opening Verse 2
|0---0---0---0---3---0---0---0---2---0---3| 

|-----------------------------------------|
|-----------------------------------------|
|-----------------------------------------|
|-----------------------------------------|
|0---0---0---0---3---0---0---0---2---0---1| Verse Riff 1 (Play lighter)
|0---0---0---0---3---0---0---0---2---0---1|

|-----------------------------------------|
|-----------------------------------------|
|-----------------------------------------|
|-----------------------------------------|
|0---0---0---0---3---0---0---0---2---0---3| Verse Riff 2 (Play lighter)
|0---0---0---0---3---0---0---0---2---0---3|

|-----------------|
|-----------------|
|-----------------|
|-----------------|
|5---7---8---7---6|
|5---7---8---7---6|

 "Pink dried up crippled Christ"
|----------------------------------------|
|----------------------------------------|
|----------------------------------------|
|----------------------------------------|
|0---0---0---0---3---0---0---0---2---0---1| Verse Riff 1 (Play lighter)
|0---0---0---0---3---0---0---0---2---0---1|

|-----------------|
|-----------------|
|-----------------|
|-----------------|
|5---7---8---7---6|
|5---7---8---7---6|

"Try To Take Your Own ADVICE" 
|-----------------------------------------|
|-----------------------------------------|
|-----------------------------------------|
|-----------------------------------------|
|0---0---0---0---3---0---0---0---2---0---3| Verse Riff 2 (Play lighter) 
|0---0---0---0---3---0---0---0---2---0---3|

 "NOW!!! Now I'm God..." 
|-------------------------|
|-------------------------|
|-------------------------|
|4---5///3---4///2---3///1|
|4---5///3---4///2---3///1| Chorus 
|4---5///3---4///2---3///1| 

"I'll never have faith in you" 
|-------------|
|-------------|
|-------------|
|4------------|
|4------------|
|4------------|
Tap to rate this tab
 
# A B C D E F G H I J K L M N O P Q R S T U V W X Y Z