Guitaretab - guitar tabs
Song name
# A B C D E F G H I J K L M N O P Q R S T U V W X Y Z

Jack Parker - Hard Rock Song tab

My first and one of my favorite songs ever!!!


Song: Hard Rock Song
Artist: Jack Parker
Tabbed by: Jack Parker
Note: This is one of my first songs ever. It has some kickin riffs if played right.
I hope you will enjoy it.

[ Tab from: http://www.guitaretab.com/j/jack-parker/42726.html ]
	I
e|----------------------------------|                   Standard Tuning
B|----------------------------------|                  e-Easter
G|----------------------------------|                  B-Bunnies
D|----------------------------------|                  G-Get
A|-7-7-7-5-9-8----------------------|                  D-Drunk
E|-5-5-5-3-7-6----------------------|                  A-At
                                  E-Easter
	II
e|-------------|
B|-------------|
G|-------------|
D|-7-7-7-5-9-8-|
A|-5-5-5-3-7-6-|
E|-------------|

	III
e|-------------------------------------|
B|-------------------------------------|
G|-------------------------------------|
D|-7-7-7-7-7-7-5-5-4-4-3-3-2-2-2-2-2-2-|
A|-5-5-5-5-5-5-3-3-2-2-1-1-0-0-0-0-0-0-|
E|-------------------------------------|

	IV
e|-------------------------|
B|-------------------------|
G|-------------------------|
D|-------------2-2-2-2-2-2-|
A|-3-3-3-3-3-3-0-0-0-0-0-0-|
E|-1-1-1-1-1-1-------------|


TO PLAY:
Play part I(3x) three times
part II(3x) three times
part III once
part IV(2 1/2x) two and one half times (stop at the switch between chords)
and repeat the whole thing with major distortion.
Related for Hard Rock Song tab
Advertisement will be closed in 10 seconds