Song name
# A B C D E F G H I J K L M N O P Q R S T U V W X Y Z

Jack Parker - Peace Love Alcohol tab

this is a really fun song to play as a lead in to any other song
its jus totally awesome like that

|----------------------------------7--7--7------------|
|*---------------------------------7--7--7-7--7------*|
|--7--7--7-6--6--6-7--7--7-6--6--6-7--7--7-6--6--6----|
|---77-77-7-77-77-7-77-77-7-77-77-7-77-77-7-77-77-7---|
|*---------------------------------------------------*|
|-----------------------------------------------------|

|-------------------|
|-------------------|
|-------------------|
|--4445444577754545-|
|-------------------|
|-------------------|


have fun....
jackZ
Tap to rate this tab
# A B C D E F G H I J K L M N O P Q R S T U V W X Y Z