Jack Parow - Cooler As Ekke tab

Artist: Jack Parow
Song: 'Cooler As Ekke'
Album: Jack Parow (2010)
Website: http://jackparow.com/
This song has only got two riffs and is played on an acoustic guitar.
I'll put the bass tabs here also..lol
Oh, my first tab btw. :P

Main riff:
e|-----------|
B|-----------|
G|-----------|
D|-------5~--|
A|-----5-----|
E|-3-3--(3)~-|

Every once in a while you'll hear an other riff

Main riff + other riff:
e|------------------|
B|------------------|
G|---------/4-------|
D|-------5---5-7-5~-|
A|-----5------------|
E|-3-3--(3)---------|

That's pretty much the whole song.
The second riff might have some extra notes but this is pretty much the basis the make 
sound good.

Bass tab:
G|---------|
D|---------|
A|---------|
E|-3-3---3-|

Have fun with it.
Tap to rate this tab
 
# A B C D E F G H I J K L M N O P Q R S T U V W X Y Z