Song name
# A B C D E F G H I J K L M N O P Q R S T U V W X Y Z

Jack Penate - My Yvonne tab

Help us improve GuitareTab! Take a short survey!
This is my first tab so bear with me! This sounds right and is pretty much as it sounds. 
there needs changing let me know. Hope it goes ok! This is pretty much played 
the whole song.


    D D U D U D U D

e|--0-0-0-0-0-0-0-0---------------------------------------|
B|--1-1-0-0-0-1-1-1---------------------------------------|
G|--0-0-0-0-0-0-0-0---------------------------------------| x 2
D|--2-2-2-2-2-2-2-2---------------------------------------|
A|--2-2-2-2-2-2-2-2---------------------------------------|
E|--x-x-x-x-x-x-x-x---------------------------------------|

    D D U D U D U D

e|--2-2-4-4-4-5-5-5---------------------------------------|
B|--2-2-2-2-2-2-2-2---------------------------------------|
G|--2-2-2-2-2-2-2-2---------------------------------------| x 2
D|--0-0-0-0-0-2-2-2---------------------------------------|
A|--x-x-x-x-x-x-x-x---------------------------------------|
E|--x-x-x-x-x-x-x-x---------------------------------------|

Then repaet the first bit and the second bit throughout the song.
Related for My Yvonne tab