Song name
# A B C D E F G H I J K L M N O P Q R S T U V W X Y Z

Jack Penate - Made Of Codes tab

Guitar enters after 15 seconds

intro (00:15-00:24)
e----5-5--4-4--3-3--2-2------------------|
B----5-5--5-5--3-3--3-3------------------|
G----6-6--6-6--4-4--4-4------------------|
D----7-7--6-6--5-5--4-4------------------|
A----7-7--4-4--5-5--2-2------------------|
E----5-5-------3-3-----------------------|

use the same chords for the verse

e----5-5-5-5-5-5-5-333-------------------|
B----5-5-5-5-5-5-5-333-------------------|
G----6-6-6-6-6-6-6-444-------------------|
D----7-7-7-7-7-7-7-555-------------------|
A----7-7-7-7-7-7-7-555-------------------|
E----5-5-5-5-5-5-5-333-------------------|

follow the bass tab for the chorus blud.
Tap to rate this tab
# A B C D E F G H I J K L M N O P Q R S T U V W X Y Z