Song name
# A B C D E F G H I J K L M N O P Q R S T U V W X Y Z

Jack Penate - Silence In Speech chords

Highlighted       Show chord diagrams
Artist: Jack Peņate
Album: Have I Been a Fool (single)
Song: Silence in Speech

Tabbed by Eragond22


Intro:

|---15---14---12-------14---12---10---|
|-------------------------------------|
|-16---14---12-------14---12---11-----|
|-------------------------------------|
|-------------------------------------|
|-------------------------------------|


           Dmaj7           Em7
|------------5--------------7---------|
|------------7--------------8---------|
|------------6--------------7---------|
|-----0------7-------0------9---------|
|-0h2---2p0--5---0h2---2p0--7---------|
|-------------------------------------|

           Dmaj7           Em7
|------------5--------------7-10------|
|------------7--------------8-8-------|
|------------6--------------7-7-------|
|-----0------7-------0------9-9-------|
|-0h2---2p0--5---0h2---2p0--7-7-------|
|-------------------------------------|




Dmaj7                      Em7
Silence never spoke to me so loud
Dmaj7                              Em7
Since last night you haven't made a sound


Cmaj7        Dmaj7
   What lies beneath 
Cmaj7           Dmaj7
   you silence in speech?


Dmaj7,Em7,Dmaj7,Em7



Dmaj7                              Em7
You tell me I should know what I've done
Dmaj7                                    Em7
I don't know where did these wrongs come from?


Cmaj7      Dmaj7
   What lies beneath 
Cmaj7         Dmaj7
   you silence in speech?



Em7         Dmaj7
I can never write what's wrong
Em7         Dmaj7
I can never write what's wrong
Em7         Dmaj7        Cmaj7
I can never write what's wrong


Em7           Dmaj7
If you saying nothing's wrong
Em7           Dmaj7
If you saying nothing's wrong
Em7           Dmaj7              Cmaj7
If you saying nothing, nothing's wrong


Dmaj7   Em7
            Tell me what's wrong
Dmaj7   Em7
            Tell me what's wrong
Dmaj7   Em7
            Tell me what's wrong
Dmaj7   Em7
            Tell me what's...


Dmaj7,Em7.Dmaj7,Em7


Dmaj7                         Em7
Written in your bad book for a day
Dmaj                              Em7
Seems to long just tell me what to say


Cmaj7      Dmaj7
   What lies beneath 
Cmaj7         Dmaj7
   you silence in speech?


Em7         Dmaj7
I can never write what's wrong
Em7         Dmaj7
I can never write what's wrong
Em7         Dmaj7        Cmaj7
I can never write what's wrong


Em7           Dmaj7
If you saying nothing's wrong
Em7           Dmaj7
If you saying nothing's wrong
Em7           Dmaj7              Cmaj7
If you saying nothing, nothing's wrong


Dmaj7   Em7
            Tell me what's wrong
Dmaj7   Em7
            Tell me what's wrong
Dmaj7   Em7
            Tell me what's wrong
Dmaj7   Em7          F#m
            I know I'm wrong 
Em7                  F#m
            I know I'm wrong 
Em7                        Dmaj7
            Tell me what's wrong 


Outro:

|---15---14---12-------14---12---10---|
|-------------------------------------|
|-16---14---12-------14---12---11-----|
|-------------------------------------|
|-------------------------------------|
|-------------------------------------|
Tap to rate this tab
# A B C D E F G H I J K L M N O P Q R S T U V W X Y Z